Log in

One click and you are in

Login with Facebook Login with Google

Why sign up and log in

Guitar Tabs Explorer
D Masiv tabs for Jangan menyerah

Guitar tabs with lyrics

Tuning: Standard

Difficulty: Advanced

       D' Masiv - Jangan Menyerah

[INTRO]
     W                   H.           A chord diagramE MajorE  A chord diagramE MajorE     Q    S. T Q    Q    A chord diagramE MajorE
A chord diagramE MajorE||-------------------|---------------------|--5----L----3----1----0--|
A chord diagramBB||-------------------|---------------------|-------------------------|
A chord diagramG+G||-------------------|------------------5--|-------------------------|
A chord diagramD MajorD||-------------------|---------------------|-------------------------|
A chord diagramA augmentedA||-------------------|---------------------|-------------------------|
A chord diagramE MajorE||-------------------|---------------------|-------------------------|


  H        A chord diagramE MajorE  A chord diagramE MajorE  S. T A chord diagramE MajorE     Q.     Q    E.  T T A chord diagramE MajorE     H.           S. T A chord diagramE MajorE
--L--------------0----0--|--L----------------------|-----------------------|
-----------1--3----------|---------3----1---L---1--|--L------------L----1--|
-------------------------|-------------------------|-----------------------|
-------------------------|-------------------------|-----------------------|
-------------------------|-------------------------|-----------------------|
-------------------------|-------------------------|-----------------------|


  Q    S. T Q    Q    A chord diagramE MajorE
--5----L----3----1----0--|
-------------------------|
-------------------------|
-------------------------|
-------------------------|
-------------------------|

  H        A chord diagramE MajorE                                             A chord diagramE MajorE  S. T A chord diagramE MajorE
--L---------------------------------------------------------0----0--|
-----------1---------------------------------------------3----------|
--------------------------------------------------------------------|
--------------------------------------------------------------------|
--------------------------------------------------------------------|
--------------------------------------------------------------------|


  Q.     Q    E.  T T A chord diagramE MajorE     H.           S. A chord diagramE MajorE  T    W
--L----------------------|-----------------------|-------------------|
---------3----1---L---1--|--L------------L-------|-------------------|
-------------------------|-----------------------|-------------------|
-------------------------|-----------------------|-------------------|
-------------------------|-----------------------|-------------------|
-------------------------|-----------------------|-------------------|


  A chord diagramE MajorE  A chord diagramE MajorE  A chord diagramE MajorE  A chord diagramE MajorE  A chord diagramE MajorE  A chord diagramE MajorE  A chord diagramE MajorE  A chord diagramE MajorE     A chord diagramE MajorE  A chord diagramE MajorE  A chord diagramE MajorE  Q    A chord diagramE MajorE  A chord diagramE MajorE  A chord diagramE MajorE
-----------3-----------3--|-----------3----------3--|
--------1-----------1-----|--------1----------1-----|
-----0-----------0--------|-----0----------0--------|
--------------------------|-------------------------|
--------------------------|--0----------------------|
--1-----------3-----------|-------------------------|
 Tak Ada       Manusia
 Yang Terlahir Sempurna
 Jangan Kau    Sesali
 Segala Yang Telah Terjadi

 Kita Pasti    Pernah
 Dapatkan Cobaan Yang Berat
 Seakan Hidup Ini
 Tak Ada Artinya Lagi


A chord diagramFF         A chord diagramG+G          A chord diagramA minorAm
Syukuri Apa Yang Ada
A chord diagramFF         A chord diagramG+G          A chord diagramC majorC
Hidup Adalah Anugerah
A chord diagramFF         A chord diagramG+G          A chord diagramA minorAm
Tetap Jalani Hidup Ini
A chord diagramFF         A chord diagramG+G          A chord diagramC majorC
Melakukan Yang Terbaik


[INTRO]

[SOLO]


A chord diagramFF        A chord diagramG+G              A chord diagramA minorAm
Tuhan Pasti Kan Menunjukkan
A chord diagramFF        A chord diagramG+G            A chord diagramC majorC
Kebesaran dan Kuasanya
A chord diagramFF        A chord diagramG+G              A chord diagramA minorAm
Bagi Hambanya Yang Sabar
A chord diagramFF        A chord diagramG+G            A chord diagramC majorC
dan Tak Kenal Putus Asa


[OUTRO] A chord diagramFF A chord diagramG+G A chord diagramA minorAm
A chord diagramFF A chord diagramC majorC


[SOLO]
  W                   W                   A chord diagramE MajorE  A chord diagramE MajorE  S E.  A chord diagramE MajorE  A chord diagramE MajorE  S E.
-------------------|-------------------|-----8----8------7----7---|
-------------------|-------------------|--1-----------0-----0-----|
-------------------|-------------------|--------5-----------------|
-------------------|-------------------|--------------------------|
-------------------|-------------------|--------------------------|
-------------------|-------------------|--------------------------|


  A chord diagramE MajorE  A chord diagramE MajorE  S E.  A chord diagramE MajorE  A chord diagramE MajorE  S A chord diagramE MajorE  S    A chord diagramE MajorE  A chord diagramE MajorE  S A chord diagramE MajorE  T T A chord diagramE MajorE  A chord diagramE MajorE  S E.
-----5----5------3----3----|-----3----3--L------1----1---|
---------------------------|--1-----1--------1-----1-----|
--------------------0------|-----------------------------|
--7-----7-----5------------|-----------------------------|
---------------------------|-----------------------------|
---------------------------|-----------------------------|


  Q    S A chord diagramE MajorE  T T H           A chord diagramE MajorE  S S S S S S S S S S S. T S S
--0----L-0--L---0--------|-----3---1---0-----0-----0--------|
-------------------------|--1--------------3---1-3------3-1-|
-------------------------|----------------------------------|
-------------------------|----------------------------------|
-------------------------|----------------------------------|
-------------------------|----------------------------------|


  S S S S S. T S S A chord diagramE MajorE  S A chord diagramE MajorE  S S S    E.  T T A chord diagramE MajorE  S S A chord diagramE MajorE  T T S A chord diagramE MajorE  A chord diagramE MajorE
----------------------1----------|--0---L---3--0-3-0--------------|
--0-------1----3-1-3----3--1---1-|--------------------1---1-3--1--|
----2-0-2--------------------2---|--------------------------------|
---------------------------------|--------------------------------|
---------------------------------|--------------------------------|
---------------------------------|--------------------------------|


  Q.     T T S A chord diagramE MajorE  S. T A chord diagramE MajorE  A chord diagramE MajorE     Q.     S H        S    H        A chord diagramE MajorE  S. T A chord diagramE MajorE  A chord diagramE MajorE
------------------6-------6--|--L------L------------|--------------6-------6--|
--L------1---1-3-------3-----|----------------------|-----------3-------3-----|
-----------------------------|----------------------|-------------------------|
-----------------------------|----------------------|-------------------------|
-----------------------------|----------------------|-------------------------|
-----------------------------|----------------------|-------------------------|


  H.           E.  S    H.           E.  S    Q.     Q.     S. T  A chord diagramE MajorE
--L------------L-----|-------------------1-|--5------7------L-----8--|
---------------------|-------------------0-|---------8------L----10--|
---------------------|---------------------|-------------------------|
---------------------|---------------------|-------------------------|
---------------------|---------------------|-------------------------|
---------------------|---------------------|-------------------------|


  Q.     A chord diagramE MajorE  A chord diagramE MajorE   A chord diagramE MajorE   S S  A chord diagramE MajorE     Q    S S  Q.     S. T  A chord diagramE MajorE
--L---------8--10--12---12--|--L----L---10------L--------|
--L------8------------------|------------------------13--|
------------------------12--|--L----L---12------L----12--|
----------------------------|----------------------------|
----------------------------|----------------------------|
----------------------------|----------------------------|


  H        S. Q.     T    W
-----------------------|-------------------|
--L--------L-----------|-------------------|
--L--------L-----------|-------------------|
-----------------------|-------------------|
-----------------------|-------------------|
-----------------------|-------------------|


[OUTRO]
  W                   W                   H.           A chord diagramE MajorE  A chord diagramE MajorE
-------------------|-------------------|---------------------|
-------------------|-------------------|------------------1--|
-------------------|-------------------|---------------------|
-------------------|-------------------|---------------------|
-------------------|-------------------|---------------------|
-------------------|-------------------|---------------------|


  Q    S. T Q    Q    A chord diagramE MajorE     H        A chord diagramE MajorE  A chord diagramE MajorE  S. T A chord diagramE MajorE     Q.     Q    E.  T T A chord diagramE MajorE
--5----L----3----1----0--|--L--------------0----0--|--L----------------------|
-------------------------|-----------1--3----------|---------3----1---L---1--|
-------------------------|-------------------------|-------------------------|
-------------------------|-------------------------|-------------------------|
-------------------------|-------------------------|-------------------------|
-------------------------|-------------------------|-------------------------|


  H.           S. T A chord diagramE MajorE     Q    S. T Q    Q    A chord diagramE MajorE     H        A chord diagramE MajorE  A chord diagramE MajorE  S. T A chord diagramE MajorE
-----------------------|--5----L----3----1----0--|--L--------------0----0--|
--L------------L----1--|-------------------------|-----------1--3----------|
-----------------------|-------------------------|-------------------------|
-----------------------|-------------------------|-------------------------|
-----------------------|-------------------------|-------------------------|
-----------------------|-------------------------|-------------------------|


  Q.     Q    E.  T T A chord diagramE MajorE
--L----------------------|
---------3----1---L---1--|
-------------------------|
-------------------------|
-------------------------|
-------------------------|


  H.                                            S. A chord diagramE MajorE  T
--------------------------------------------------------|----|----||
--L---------------------------------------------L-------|----|----||
--------------------------------------------------------|----|----||
--------------------------------------------------------|----|----||
--------------------------------------------------------|----|----||
--------------------------------------------------------|----|----||



Duration 🏷Legend
---------------
W - whole
H - half
Q - quarter
A chord diagramE MajorE - 8th
S - 16th
T - 32nd
X - 64th
. - note dotted
|-n-|  - n-tuplets


Tablature 🏷Legend
----------------
L - tied note
x - dead note
g - grace note
(n) - ghost note
> - accentuded note
NH - natural harmonic
AH - artificial harmonic
TH - tapped harmonic
SH - semi harmonic
PH - pitch harmonic
h - hammer on
p - pull off
b - bend
br - bendRelease
pb - preBend
pbr - preBendRelease
brb - bendReleaseBend
\n/ - tremolo bar dip
\n - tremolo bar dive
-/n - tremolo bar Release up
/n\ - tremolo bar inverted dip
/n - tremolo bar return
-\n - tremolo bar Release down
S - shift slide
s - legato slide
/ -  slide into from below or out of upwards
\ -  slide into from above or out of downwards
~ - vibrato
W - wide vibrato
tr - trill
TP - tremolo picking
T - tapping
S - slap
P - pop
< - fade in
^ - brush up
v - brush down

Other versions of Jangan Menyerah

Jangan menyerah (Ver. 2)Tabs

Almost there ...

Sign in to get your own page with links to favourite songs and more. You are just one click away...

Login with Facebook Login with Google