Log in

One click and you are in

Login with Facebook Login with Google

Why sign up and log in

Guitar Tabs Explorer
Miley Cyrus bass tabs for Wtf do i know (Ver. 2)

Bass tabs

  • Difficulty: Intermediate
Tuning: Drop D

🎸 Intro:

G|-------------------------------------------|
D|-----------------2-------------------------|
A|5h7---------------------7/----5/7--5-------|
D|------2-2-2-20------2-2----2---------------|


🎸 Verse :

G|----------------------------------------------------------|
D|-----------------2----------------------------------------|
A|5h7---------------------7/----5/7--5-----5h7--------------|
D|------2-2-2-20------2-2----2--------------------2-2-2-20--|

G|----------------------------------------------------------|
D|----------------------------------------------------------|
A|----------------------------------------------------------|
D|---2/10-10-10-10-10-10--5--7-5-7-5\-----------------------|

G|----------------------------------------------------------|
D|-----------------2----------------------------------------|
A|5h7---------------------7/----5/7--5-----5h7--------------|
D|------2-2-2-20------2-2----2----------------------2-2-2-20|

G|----------------------------------------------------------|
D|----------------------------------------------------------|
A|----------------------------------------------------------|
D|---2/10-10-10-10-10-10--5--7-5-7--------------------------|


Rest:

🎸 Pre-Chorus:

G|-16--12----------14-12----------------------------------|
D|----------14--14---------14--12--14-------14--16--17\---|
A|--------------------------------------------------------|
D|--------------------------------------------------------|

🎸 Chorus:

G|--------------------------------------------------------|
D|--------------------------------------------------------|
A|----------------------------5-5-5-5-5-5-5-3-3-3-3-3-3-3-|
D|2-2-2-2-2-2-2-5-5-5-5-5-5-5-----------------------------|

G|--------------------------------------------------------|
D|--------------------------------------------------------|
A|----------------------------5-5-5-5-5-5-5---------------|
D|2-2-2-2-2-2-2-5-5-5-5-5-5-5---------------7-7-7-7-7-7-7-|

G|-16--12----------14-12----------------------------------|
D|---------14--14---------14--12--14-------14--16--17-14\-|
A|--------------------------------------------------------|
D|--------------------------------------------------------|

G|-16--12----------14-12----------------------------------|
D|----------14--14---------14--12--14-------14--16--17\---|
A|--------------------------------------------------------|
D|--------------------------------------------------------|


🎸 Verse 2:

G|----------------------------------------------------------|
D|-----------------2----------------------------------------|
A|5h7---------------------7/----5/7--5-----5h7--------------|
D|------2-2-2-20------2-2----2--------------------2-2-2-20--|

G|----------------------------------------------------------|
D|----------------------------------------------------------|
A|----------------------------------------------------------|
D|---2/10-10-10-10-10-10--5--7-5-7-5\-----------------------|

G|----------------------------------------------------------|
D|-----------------2----------------------------------------|
A|5h7---------------------7/----5/7--5-----5h7--------------|
D|------2-2-2-20------2-2----2----------------------2-2-2-20|

🎸 Chorus:

G|--------------------------------------------------------|
D|--------------------------------------------------------|
A|----------------------------5-5-5-5-5-5-5-3-3-3-3-3-3-3-|
D|2-2-2-2-2-2-2-5-5-5-5-5-5-5-----------------------------|

G|--------------------------------------------------------|
D|--------------------------------------------------------|
A|----------------------------5-5-5-5-5-5-5---------------|
D|2-2-2-2-2-2-2-5-5-5-5-5-5-5---------------7-7-7-7-7-7-7-|

G|-16--12----------14-12----------------------------------|
D|---------14--14---------14--12--14-------14--16--17-14\-|
A|--------------------------------------------------------|
D|--------------------------------------------------------|

G|-16--12----------14-12----------------------------------|
D|----------14--14---------14--12--14-------14--16--17\---|
A|--------------------------------------------------------|
D|--------------------------------------------------------|


🎸 Break:

🎸 Bridge:

G|------------------------------|
D|------------------------------|
A|------------------------------|
D|-2-2-2-2-2-2--2-2-2-2-2--2--2-| x3


🎸 Chorus:

G|--------------------------------------------------------|
D|--------------------------------------------------------|
A|----------------------------5-5-5-5-5-5-5-3-3-3-3-3-3-3-|
D|2-2-2-2-2-2-2-5-5-5-5-5-5-5-----------------------------|

G|--------------------------------------------------------|
D|--------------------------------------------------------|
A|----------------------------5-5-5-5-5-5-5---------------|
D|2-2-2-2-2-2-2-5-5-5-5-5-5-5---------------7-7-7-7-7-7-7-|

G|-16--12----------14-12----------------------------------|
D|---------14--14---------14--12--14-------14--16--17-14\-|
A|--------------------------------------------------------|
D|--------------------------------------------------------|

G|-16--12----------14-12----------------------------------|
D|----------14--14---------14--12--14-------14--16--17\---|
A|--------------------------------------------------------|
D|--------------------------------------------------------|

**********************************
| h Hammer-on
| / Slide up
| \ Slide down
**********************************
ⓘ This is the 2nd version of bass guitar tab for 'Wtf Do I Know' by Miley Cyrus, Hanna Montana, a female country artist from Nashville, Tennesse. Miley Cyrus was born in 1992. Miley Cyrus is known for her confrontational rock/pop music.

Other versions of Wtf Do I Know

Wtf do I knowBass tabs

Almost there ...

Sign in to get your own page with links to favourite songs and more. You are just one click away...

Login with Facebook Login with Google