Log in

One click and you are in

Login with Facebook Login with Google

Why sign up and log in

Guitar Tabs Explorer
Miley Cyrus bass tabs for Party in the usa

Bass tabs

00:20-00:40
G|------------||
D|------------||x4
A|---1--6--4--||
E|-2--------1-||

00:45-01:10
 (-----------x2-----------)
G|---------------------6---|-------------||
D|-----------------------3-|-------------||
A|---1--6--4------1--6-----|---1--6--4---||
E|-2---------1--2----------|-2---------1-||

01:20-01:40
G|-------------||
D|-------------||x4
A|---1--6--4---||
E|-2---------1-||

01:45-02:09
(-----------x2-----------)
G|---------------------6---|-------------||
D|-----------------------3-|-------------||
A|---1--6--4------1--6-----|---1--6--4---||
E|-2---------1--2----------|-2---------1-||

02:10-02:29
G|------------------------------||
D|------------------------------||
A|--1--5--1-----1--6--1--4-4444-||
E|-----------4------------------||

02:30-03:20
(-----------x5-----------)
G|---------------------6---|-------------||
D|-----------------------3-|-------------||
A|---1--6--4------1--6-----|---1--6--4---||
E|-2---------1--2----------|-2---------1-||

ⓘ Bass guitar tab for 'Party In The Usa' by Miley Cyrus, Hanna Montana, a female country artist from Nashville, Tennesse. Miley Cyrus was born in 1992. Miley Cyrus is known for her confrontational rock/pop music.

Almost there ...

Sign in to get your own page with links to favourite songs and more. You are just one click away...

Login with Facebook Login with Google