Log in

One click and you are in

Login with Facebook Login with Google

Why sign up and log in

Guitar Tabs Explorer
Miley Cyrus bass tabs for Flowers

Bass tabs

Verse 1:

G|---------------------------------------------------------|
D|-----------2---------------------------------------------|
A|--0--0-0-3---3--5--5-5-7-5-3---------0-2---3--3-3-5-3-2--|
E|------------------------------3--3-3-----3---------------|

G|---------------------------------------------------------|
D|-----------2---------------------------------------------|
A|--0--0-0-3---3--5--5-5-7-5-3---------0-2---3--3-3-5-3-2--|
E|------------------------------3--3-3-----3---------------|

Pre-Chorus:

G|---------------------------------|
D|-----------2---------------------|
A|--0--0-0-3---3---5--5-5----------|
E|--------------------------0------|


Chorus:

G|--------------------------------------------5---4-|
D|----------2---------------------------------------|
A|--0-0-0-3---3-5-5-5-7-5-3-------0-2---3-3-3---2---|
E|--------------------------3-3-3-----3-------------|

G|-------------------------------------------5-4----|
D|---------2-------------------------------------5--|
A|-0-0-0-3---3-5-5-5-7-5-3-------0-2---3-3-3--------|
E|-------------------------3-3-3-----3--------------|

G|--------------------------------------------------|
D|----------2---------------------------------------|
A|--0-0-0-3---3-5-5-5-7-5-3-------0-2----3--3-2--2--|
E|--------------------------3-3-3-----3-------------|

G|---------------------|
D|---------------------|
A|---------------------|
E|--1-1-1-3-5-1-0------|

G|---------------------------------------------------------|
D|---------------------------------------------------------|
A|-0--0-0-3---3--5--5-5-7-5-3---------0-2---3--3-3-5-3-2---|
E|-----------------------------3--3-3-----3----------------|
Verse 2:

G|--------------------------------------------------5---4--|
D|-----------2---------------------------------------------|
A|--0--0-0-3---3--5--5-5-7-5-3----------0-2---3-3-3---2----|
E|------------------------------3---3-3-----3--------------|

G|---------------------------------------------------------|
D|-----------2---------------------------------------------|
A|--0--0-0-3---3--5--5-5-7-5-3---------0-2---3--3-2--2-----|
E|------------------------------3--3-3-----3---------------|


Pre-Chorus:

G|----------------------------------------------|
D|-----------2----------------------------------|
A|--0--0-0-3---3---5--5-5--5-----------7-7-7-7--|
E|---------------------------0--0-0--0----------|


Chorus:

G|--------------------------------------------5---4-|
D|----------2---------------------------------------|
A|--0-0-0-3---3-5-5-5-7-5-3-------0-2---3-3-3---2---|
E|--------------------------3-3-3-----3-------------|

G|--------------------------------------------5-4---|
D|----------2-------------------------------------5-|
A|--0-0-0-3---3-5-5-5-7-5-3-------0-2---3-3-3-------|
E|--------------------------3-3-3-----3-------------|

G|--------------------------------------------------|
D|----------2---------------------------------------|
A|--0-0-0-3---3-5-5-5-7-5-3-------0-2----3--3-2--2--|
E|--------------------------3-3-3-----3-------------|

G|---------------------|
D|---------------------|
A|---------------------|
E|--1-1-1-3-5-1-0------|

G|--------------------------------------------5---4--|
D|----------2----------------------------------------|
A|--0-0-0-3---3-5-5-5-7-5-3-------0-2---3-3-3---2----|
E|--------------------------3-3-3-----3--------------|

G|---------------------------------------------------|
D|----------2----------------------------------5-2---|
A|--0-0-0-3---3-5-5-5-7-5-3-------0-2---3-3-3------3-|
E|---------------------------3-3-3----3--------------|


Pre-Chorus:

G|------------------|
D|--/7--------------|
A|--------5---------|
E|------------------|


Chorus:

G|--------------------------------------------5---4--|
D|----------2----------------------------------------|
A|--0-0-0-3---3-5-5-5-7-5-3-------0-2---3-3-3---2----|
E|--------------------------3-3-3-----3--------------|

G|--------------------------------------------5-4----|
D|----------2-------------------------------------5--|
A|--0-0-0-3---3-5-5-5-7-5-3-------0-2---3-3-3--------|
E|--------------------------3-3-3-----3--------------|

G|---------------------------------------------------|
D|----------2----------------------------------------|
A|--0-0-0-3---3-5-5-5-7-5-3-------0-2----3--3-2--2---|
E|--------------------------3-3-3-----3--------------|

G|----------------------------------------|
D|----------------------------------------|
A|----------------------------------------|
E|--1-1-1-3-5-1-0--0-0-1-1-1-3-5-1-0------|

G|-----------------------------------------------------|
D|----------2------------------------------------7-5---|
A|-0--0-0-3---3-5--5-5-7-5-3--------0-2---3--3-3-----7-|
E|---------------------------3--3-3-----3--------------|

G|-----------------------------------------------------|
D|----------2------------------------------------------|
A|-0--0-0-3---3-5--5-5-7-5-3--------0-2---3-3-3--------|
E|---------------------------3--3-3-----3--------------|


************************************

| / Slide up

************************************
cyrus miley flowers music video
ⓘ Bass guitar tab for 'Flowers' by Miley Cyrus, Hanna Montana, a female country artist from Nashville, Tennesse. Miley Cyrus was born in 1992. Miley Cyrus is known for her confrontational rock/pop music.

Almost there ...

Sign in to get your own page with links to favourite songs and more. You are just one click away...

Login with Facebook Login with Google