Log in

One click and you are in

Login with Facebook Login with Google

Why sign up and log in

Guitar Tabs Explorer
The Cure bass tabs for The caterpillar

Bass tabs with lyrics

Tuning: Standard (E A D G)



Intro:
 G5  (bass fades in)
G|-----------------|-----------------|-----------------|---------------------------|
D|-----------------|-----------------|-----------------|---------------------------|
A|-----------------|-----------------|-----------------|---------------------------|
E|-3-3-3-3-3-3-3-3-|-3-3-3-3-3-3-3-3-|-3-3-3-3-3-3-3-3-|-/-15-15-15-15-15-15-15-15-|
 G5   D5  E5 D   Dsus2 D  G5   D5  E5 D   Dsus2 D
G|-----------------|-----------------|-----------------|-----------------|
D|-----------------|-----------------|-----------------|-----------------|
A|-----------------|-5--5---5--------|-----------------|-5--5---5--------|
E|-3--3---3---5--5-|------------5--5-|-3--3---3---5--5-|------------5--5-|

 G5   D5  E5 D   Dsus2 D  G5   D5  E5 D   Dsus2 D
G|-----------------|-----------------|-----------------|-----------------|
D|-----------------|-----------------|-----------------|-----------------|
A|-----------------|-5--5---5--------|-----------------|-5--5---5--------|
E|-3--3---3---5--5-|------------5--5-|-3--3---3---5--5-|------------5--5-|


Verse 1:
 G5   D5  E5 D   Dsus2 D  G5   D5  E5 D   Dsus2 D
G|-----------------|-----------------|-----------------|-----------------|
D|-----------------|-----------------|-----------------|-----------------|
A|-----------------|-5--5---5--------|-----------------|-5--5---5--------|
E|-3--3---3---5--5-|------------5--5-|-3--3---3---5--5-|------------5--5-|

 G5   D5  E5 D   Dsus2 D  G5   D5  E5 D   Dsus2 D
G|-----------------|-----------------|-----------------|-----------------|
D|-----------------|-----------------|-----------------|-----------------|
A|-----------------|-5--5---5--------|-----------------|-5--5---5--------|
E|-3--3---3---5--5-|------------5--5-|-3--3---3---5--5-|------------5--5-|


Chorus:
 F#        Bm        F#        Bm
G|-----------------|-----------------|-----------------|-----------------|
D|-----------------|-----------------|-----------------|-----------------|
A|------------4--4-|-2--2---2---4--4-|------------4--4-|-2--2---2---4--4-|
E|-2--2---2--------|-----------------|-2--2---2--------|-----------------|

 F#        Bm        F#        Bm
G|-----------------|-----------------|-----------------|-----------------|
D|-----------------|-----------------|-----------------|-----------------|
A|------------4--4-|-2--2---2---4--4-|------------4--4-|-2--2---2---4--4-|
E|-2--2---2--------|-----------------|-2--2---2--------|-----------------|

 G5   D5  E5 D   Dsus2 D  G5   D5  E5 D   Dsus2 D
G|-----------------|-----------------|-----------------|-----------------|
D|-----------------|-----------------|-----------------|-----------------|
A|-----------------|-5--5---5--------|-----------------|-5--5---5--------|
E|-3--3---3---5--5-|------------5--5-|-3--3---3---5--5-|------------5--5-|

 G5   D5  E5 D   Dsus2 D  G5   D5  E5 D   Dsus2 D
G|-----------------|-----------------|-----------------|-----------------|
D|-----------------|-----------------|-----------------|-----------------|
A|-----------------|-5--5---5--------|-----------------|-5--5---5--------|
E|-3--3---3---5--5-|------------5--5-|-3--3---3---5--5-|------------5--5-|


Verse 2:
 G5   D5  E5 D   Dsus2 D  G5   D5  E5 D   Dsus2 D
G|-----------------|-----------------|-----------------|-----------------|
D|-----------------|-----------------|-----------------|-----------------|
A|-----------------|-5--5---5--------|-----------------|-5--5---5--------|
E|-3--3---3---5--5-|------------5--5-|-3--3---3---5--5-|------------5--5-|

 G5   D5  E5 D   Dsus2 D  G5   D5  E5 D   Dsus2 D
G|-----------------|-----------------|-----------------|-----------------|
D|-----------------|-----------------|-----------------|-----------------|
A|-----------------|-5--5---5--------|-----------------|-5--5---5--------|
E|-3--3---3---5--5-|------------5--5-|-3--3---3---5--5-|------------5--5-|


Chorus:

Chorus:
 F#        Bm        F#        Bm
G|-----------------|-----------------|-----------------|-----------------|
D|-----------------|-----------------|-----------------|-----------------|
A|------------4--4-|-2--2---2---4--4-|------------4--4-|-2--2---2---4--4-|
E|-2--2---2--------|-----------------|-2--2---2--------|-----------------|

 F#        Bm        F#        Bm
G|-----------------|-----------------|-----------------|-----------------|
D|-----------------|-----------------|-----------------|-----------------|
A|------------4--4-|-2--2---2---4--4-|------------4--4-|-2--2---2---4--4-|
E|-2--2---2--------|-----------------|-2--2---2--------|-----------------|


Bridge:
 F#7sus4/G     F#7sus4      F#7sus4/G     F#7sus4
G|-----------------|-----------------|-----------------|-----------------|
D|-----------------|-----------------|-----------------|-----------------|
A|-----------------|-----------------|-----------------|-----------------|
E|-3---------------|-----------------|-3---------------|-----------------|

 F#7sus4/G     F#7sus4      F#7sus4/G     F#7sus4
G|-----------------|-----------------|-----------------|---------------------------|
D|-----------------|-----------------|-----------------|---------------------------|
A|-----------------|-----------------|-----------------|---------------------------|
E|-3---------------|-----------------|-3---------------|-/-15-15-15-15-15-15-15-15-|

 G5   D5  E5 D   Dsus2 D  G5   D5  E5 D   Dsus2 D
G|-----------------|-----------------|-----------------|-----------------|
D|-----------------|-----------------|-----------------|-----------------|
A|-----------------|-5--5---5--------|-----------------|-5--5---5--------|
E|-3--3---3---5--5-|------------5--5-|-3--3---3---5--5-|------------5--5-|

 G5   D5  E5 D   Dsus2 D  G5   D5  E5 D   Dsus2 D
G|-----------------|-----------------|-----------------|-----------------|
D|-----------------|-----------------|-----------------|-----------------|
A|-----------------|-5--5---5--------|-----------------|-5--5---5--------|
E|-3--3---3---5--5-|------------5--5-|-3--3---3---5--5-|------------5--5-|


Verse 3:
 G5   D5  E5 D   Dsus2 D  G5   D5  E5 D   Dsus2 D
G|-----------------|-----------------|-----------------|-----------------|
D|-----------------|-----------------|-----------------|-----------------|
A|-----------------|-5--5---5--------|-----------------|-5--5---5--------|
E|-3--3---3---5--5-|------------5--5-|-3--3---3---5--5-|------------5--5-|

 G5   D5  E5 D   Dsus2 D  G5   D5  E5 D   Dsus2 D
G|-----------------|-----------------|-----------------|-----------------|
D|-----------------|-----------------|-----------------|-----------------|
A|-----------------|-5--5---5--------|-----------------|-5--5---5--------|
E|-3--3---3---5--5-|------------5--5-|-3--3---3---5--5-|------------5--5-|


Chorus:
 F#        Bm        F#        Bm
G|-----------------|-----------------|-----------------|-----------------|
D|-----------------|-----------------|-----------------|-----------------|
A|------------4--4-|-2--2---2---4--4-|------------4--4-|-2--2---2---4--4-|
E|-2--2---2--------|-----------------|-2--2---2--------|-----------------|

 F#        Bm        F#        Bm
G|-----------------|-----------------|-----------------|-----------------|
D|-----------------|-----------------|-----------------|-----------------|
A|------------4--4-|-2--2---2---4--4-|------------4--4-|-2--2---2---4--4-|
E|-2--2---2--------|-----------------|-2--2---2--------|-----------------|


Outro:
 G5   D5  E5 D   Dsus2 D  G5   D5  E5 D   Dsus2 D
G|-----------------|-----------------|-----------------|-----------------|
D|-----------------|-----------------|-----------------|-----------------|
A|-----------------|-5--5---5--------|-----------------|-5--5---5--------|
E|-3--3---3---5--5-|------------5--5-|-3--3---3---5--5-|------------5--5-|

 G5   D5  E5 D   Dsus2 D  G5   D5  E5 D   Dsus2 D
G|-----------------|-----------------|-----------------|-----------------|
D|-----------------|-----------------|-----------------|-----------------|
A|-----------------|-5--5---5--------|-----------------|-5--5---5--------|
E|-3--3---3---5--5-|------------5--5-|-3--3---3---5--5-|------------5--5-|

 G5   D5  E5 D   Dsus2 D  G5   D5  E5 D   Dsus2 D
G|-----------------|-----------------|-----------------|-----------------|
D|-----------------|-----------------|-----------------|-----------------|
A|-----------------|-5--5---5--------|-----------------|-5--5---5--------|
E|-3--3---3---5--5-|------------5--5-|-3--3---3---5--5-|------------5--5-|

 G5   D5  E5 D   Dsus2 D  G5   D5  E5 D   Dsus2 D
G|-----------------|-----------------|-----------------|-----------------|
D|-----------------|-----------------|-----------------|-----------------|
A|-----------------|-5--5---5--------|-----------------|-5--5---5--------|
E|-3--3---3---5--5-|------------5--5-|-3--3---3---5--5-|------------5--5-|

 G5
G|-----------------|
D|-----------------|
A|-----------------|
E|-3---------------|


************************************

| /  Slide up

************************************

Almost there ...

Sign in to get your own page with links to favourite songs and more. You are just one click away...

Login with Facebook Login with Google