Log in

One click and you are in

Login with Facebook Login with Google

Why sign up and log in

Guitar Tabs Explorer
The Cure bass tabs for One hundred years

Bass tabs

Main Verses
G |-----------------|-----------------|-----4-----4-----|-----4-----4-----|
D |-----------------|-----------------|-----------------|-----------------|
A |-3-3-3-3-3-3-3-3-|-3-3-3-3-3-3-5-3-|-2-2-----2----2--|-2-2-----2-----2-|
E |-----------------|-----------------|-----------------|-----------------|
  1 & 2 & 3 & 4 &  1 & 2 & 3 & 4 &  1 & 2 & 3 & 4 &  1 & 2 & 3 & 4 &


Chorus "Just Like The Old Days"/"One After The Other" etc.
G |-----------------|-----------------|
D |-----------------|-----------------|
A |-1---1-1---1-1---|-1-1---1---1-1---|
E |-----------------|-----------------|
  1 & 2 & 3 & 4 &  1 & 2 & 3 & 4 &

"It Feels Like A Hundred Years"
G |-----------------|
D |-4-4-4---4-4-4---|
A |-----------------|
E |-----------------|
  1 & 2 & 3 & 4 &




This is my first tab, so there will probably be other better tabs/versions somewhere. But please rate none the less

ⓘ Bass guitar tab for 'One Hundred Years' by The Cure, an alternative rock band formed in 1977 from Crawley, England. The Cure is known for their gritty rock/pop music.

Almost there ...

Sign in to get your own page with links to favourite songs and more. You are just one click away...

Login with Facebook Login with Google