Log in

One click and you are in

Login with Facebook Login with Google

Why sign up and log in

Guitar Tabs Explorer
Cueshe bass tabs for Ulan

Bass tabs

standard tuning

G|-------------------------------------------------------|
D|-------------------------------------------------------|
A|-------------------------------------------------------|
E|-------------------------------------------------------|





intro
G|-------------------------------------------------------|
D|-------------------------------------------------------|
A|-2-2-2-2-2-2---6-6-6-6-6-6-6--------------- -----------|
E|-----------------------------4-4-4-4-4-4---0-----------|


verse
G|-------------------------------------------------------|
D|-after keyboards---------------------------------------|
A|-----------------4-4-4-4-4-4-4-7-7-7-7-7-7-7-----------|
E|-------------------------------------------------------|

G|-------------------------------------------------------|
D|-------------------------------------------------------|
A|-2-2-2-2-2-2-2-6-6-6-6-6-6-6---------------------------|
E|-----------------------------4-4-4-4-4-4-4-3-3-3-3-3-3-3|

G|-------------------------------------------------------|
D|-------------------------------------------------------|
A|-2-2-2-2-2-2-2-----------------------------------------|
E|---------------2-2-2-2-2-2-2----(repeat intro)---------|

verse 2
G|-------------------------------------------------------|
D|-after keyboards---------------------------------------|
A|-----------------4-4-4-4-4-4-4-7-7-7-7-7-7-7-----------|
E|-------------------------------------------------------|

G|-------------------------------------------------------|
D|-------------------------------------------------------|
A|-2-2-2-2-2-2-2-6-6-6-6-6-6-6---------------------------|
E|-----------------------------4-4-4-4-4-4-4-3-3-3-3-3-3-3|

G|-------------------------------------------------------|
D|-------------------------------------------------------|
A|-2-2-2-2-2-2-2-----------------------------------------|
E|---------------2-2-2-2-2-2-2---------------------------|


G|-------------------------------------------------------|
D|-------------------------------------------------------|
A|-2-2-2-2-2-2-2-----------------------------------------|
E|---------------2-2-2-2-2--2-0--------------------------|


chorus


G|--------------------------------------------------------------|
D|--------------------------------------------------------------|
A|-2-2-2-2-2-2-2-6-6-6-6-6-6-6---------------4-4-4-4-4-4-4------|
E|-----------------------------4-4-4-4-4-4-4--------------------|


G|-------------------------------------------------------------|
D|-------------------------------------------------------------|
A|-4-4-4-4-4-4-4-7-7-7-7-7-7-7-2-2-2-2-2-2-2-------------------|
E|-------------------------------------------2-2-2-2-2--2-0----|


G|--------------------------------------------------------------|
D|--------------------------------------------------------------|
A|-2-2-2-2-2-2-2-6-6-6-6-6-6-6---------------4-4-4-4-4-4-4------|
E|-----------------------------4-4-4-4-4-4-4--------------------|


G|-------------------------------------------------------------|
D|-------------------------------------------------------------|
A|-4-4-4-4-4-4-4-7-7-7-7-7-7-7---------------------------------|
E|-------------------------------------------------------------|


G|--------------------------------------------------------------|
D|--------------------------------------------------------------|
A|-2-2-2-2-2-2-2-6-6-6-6-6-6-6---------------4-4-4-4-4-4-4------|
E|-----------------------------4-4-4-4-4-4-4--------------------|


G|-------------------------------------------------------------|
D|-------------------------------------------------------------|
A|-4-4-4-4-4-4-4-------------2---------------------------------|
E|---------------2-2-2-2-2-2-----------------------------------|

key boards and vocals. (these is optional)
G|---------------------------------------------|
D|---------------------------------------------| x7
A|-2---6---------------------------------------|
E|---------------------------------------------|

repeat verse 2

then chorus x2

G|--------------------------------------------------------------|
D|--------------------------------------------------------------|
A|-2-2-2-2-2-2-2-6-6-6-6-6-6-6---------------4-4-4-4-4-4-4------|
E|-----------------------------4-4-4-4-4-4-4--------------------|

G|-------------------------------------------------------------|
D|-------------------------------------------------------------|
A|-4-4-4-4-4-4-4-7-7-7-7-7-7-7-2-2-2-2-2-2-2-------------------|
E|-------------------------------------------2-2-2-2-2--2-0----|

coda

G|--------------------------------------------------------------------|
D|--------------------------------------------------------------------|
A|-2-2-2-2-------------------------------7-7-7-7-2-2-2-2-2-2-2-2------|x3
E|--------2-2-2-2-4-4-4-4-2-2-2-2-5-5-5-5-----------------------------|

G|--------------------------------------------------------------------|
D|--------------------------------------------------------------------|
A|-2-2-2-2-------------------------------7-7-7-7--2-------------------|
E|--------2-2-2-2-4-4-4-4-2-2-2-2-5-5-5-5-----------------------------|


pag may mali.. kayo na bhla .. pero sigrado ako at least 98% of it ay tama...


\m/

Almost there ...

Sign in to get your own page with links to favourite songs and more. You are just one click away...

Login with Facebook Login with Google