Log in

One click and you are in

Login with Facebook Login with Google

Why sign up and log in

Guitar Tabs Explorer
Crush (크러쉬) guitar tabs for Nappa 나빠

Guitar tabs with lyrics

Tuning: Standard (E A D G B E)


Verse 1:

e|--------x---x-----------x-------|--------x---x-----------x-------|
B|------3-x-3-x---3-----3-x-------|------3-x-3-x---3-----3-x-------|
G|------2-x-2-x---2-----2-x-------|------1-x-1-x---1-----1-x-------|
D|----3---x-3-x---3-----3-x-------|----3---x-3-x---3-----3-x-------|
A|1-------x-1-x-1-1-------x---1---|2-------x-2-x-2-2-------x---2---|
E|--------x---x-----------x-------|--------x---x-----------x-------|

  아무 말 안 해도                    다 알고 있다고
  Amu mal an haedo                 Da algo itdago

e|--------x---x-----------x-------|--------x---x-----------x-------|
B|------4-x-4-x---4-----4-x-------|------4-x-4-x---4-----4-x-------|
G|------3-x-3-x---3-----3-x-------|------3-x-3-x---3-----3-x-------|
D|----5---x-5-x---5-----5-x-------|----4---x-4-x---4-----4-x-------|
A|3-------x-3-x-3-3-------x---3---|3-------x-3-x-3-3-------x---3---|
E|--------x---x-----------x-------|--------x---x-----------x-------|

  괜찮은 척해도                      다 드러나는 걸
  Gwaenchanheun cheokhaedo         Da deureonaneun geol

e|--------x---x-----------x-------|--------------------------------|
B|------3-x-3-x---3-----3-x-------|7-------------------------------|
G|------2-x-2-x---2-----2-x-------|7-------s---------------s-------|
D|----3---x-3-x---3-----3-x-------|5-------------------------------|
A|1-------x-1-x-1-1-------x---1---|7-------------------------------|
E|--------x---x-----------x-------|--------------------------------|

  뾰로통한 입술                      차가운 네 말투에
  Ppyorotonghan ipsul              Chagaun ne maltue

e|--------x---x-----------x-------|--------x---x-----------x-------|
B|------4-x-4-x---4-----4-x-------|------4-x-4-x---4-----4-x-------|
G|------3-x-3-x---3-----3-x-------|------3-x-3-x---3-----3-x-------|
D|----5---x-5-x---5-----5-x-------|----4---x-4-x---4-----4-x-------|
A|3-------x-3-x-3-3-------x---3---|3-------x-3-x-3-3-------x---3---|
E|--------x---x-----------x-------|--------x---x-----------x-------|

  왜 내 맘을 의심해                  네가 제일 잘 알면서
  Wae nae mameul uisimhae          Nega jeil jal almyeonseo


Pre-Chorus:

e|--------x-----x-----------------|--------------------------------|
B|3-3-----x-3-3-x---------x-------|7-------------------------------|
G|2-2-----x-2-2-x---------x-------|7-------s---------------s-------|
D|3-3-----x-3-3-x---------x-------|5-------------------------------|
A|1-1-----x-1-1-x---------x-------|7-------------------------------|
E|--------x-----x-----------------|--------------------------------|

  미안하단 말이 입에 붙어서, yeah      또 미안해 슬쩍 말을 꺼내보지만
  Mianhadan mari ibe buteoseo,     Tto mianhae seuljjeok mareul
  yeah                             kkeonaebojiman

e|--------x---x-----------x-------|--------x---x-----------x-------|
B|------4-x-4-x---4-----4-x-------|------4-x-4-x---4-----4-x-------|
G|------3-x-3-x---3-----3-x-------|------3-x-3-x---3-----3-x-------|
D|----5---x-5-x---5-----5-x-------|----4---x-4-x---4-----4-x-------|
A|3-------x-3-x-3-3-------x---3---|3-------x-3-x-3-3-------x---3---|
E|--------x---x-----------x-------|--------x---x-----------x-------|

  눈칫밥에 체한 난                   몸살 나려 그래
  Nunchitbabe chehan nan           Momsal naryeo geurae

e|--------x-----x-----------------|--------------------------------|
B|3-3-----x-3-3-x---------x-------|7-------------------------------|
G|2-2-----x-2-2-x---------x-------|7-------s---------------s-------|
D|3-3-----x-3-3-x---------x-------|5-------------------------------|
A|1-1-----x-1-1-x---------x-------|7-------------------------------|
E|--------x-----x-----------------|--------------------------------|

  오늘은 이래저래, 음, 늦었어, yeah    쓸데없이 핑계만 늘어놓고선, yeah
  Oneureun iraejeorae, eum,        Sseuldeeopsi pinggyeman
  neujeosseo, yeah                 neureonohgoseon, yeah

e|--------x---x-----------x-------|--------x---x-----------x-------|
B|------4-x-4-x---4-----4-x-------|------4-x-4-x---4-------x-------|
G|------3-x-3-x---3-----3-x-------|------3-x-3-x---3-------x-------|
D|----5---x-5-x---5-----5-x-------|----4---x-4-x---4-----4-x-------|
A|3-------x-3-x-3-3-------x---3---|3-------x-3-x-3-3-------x---3---|
E|--------x---x-----------x-------|--------x---x-----------x-------|

  날 안아줘 my baby                 바보 같은 나
  Nal anajwo my baby               Babo gateun na


Chorus:

e|--------------------------------|--------------------------------|
B|--------3-------4-------7-------|--------6-------7-------2-------|
G|--------2-------5-------7-------|--------7-------6-------3-------|
D|----3-------3---6-------6-------|----5-------5---7-------4-------|
A|1-------------------------------|6---------------6---------------|
E|----------------6-------6-------|------------------------4-------|

  Oh, 말 해                         줘 너에
  Oh, malhae                       Jwo neoe

e|--------x---------------x-------|------8-x-------------A-x-------|
B|------6-x-------------6-x-------|----8---x-----------8---x-------|
G|----5---x-----------5---x-------|--9-----x---------8-----x-------|
D|--7-----x---------4-----x-------|--------x---------------x-------|
A|5-------x---5-----------x-------|7-------x---7---8-------x---8---|
E|--------x-------4-------x---4---|--------x---------------x-------|

  게 난                             나빠 아파, 내가
  Ge nan                           Nappa apa, naega

e|--------x---x-------------------|--------x---x-------------------|
B|------6-x-6-x---8-------7-------|------6-x-6-x---7-------2-------|
G|------7-x-7-x---8-------7-------|------7-x-7-x---6-------3-------|
D|----7---x-7-x---6-------6-------|----5---x-5-x---7-------4-------|
A|--------x---x---8---------------|6-------x-6-x---6---------------|
E|6-------x-6-x-----------6-------|--------x---x-----------4-------|

  바빠 바빠 빠서, 네 맘               아파 아파 파서
  Bappa bappa ppaseo, ne mam       Apa apa paseo

e|--------x-----------------------|--------x-----------------------|
B|------6-x-------4-------3-------|------4-x-------4---------------|
G|----7---x-------4-------1-------|----3---x-------3---------------|
D|--8-----x-------3-------3-------|--5-----x-------4---------------|
A|--------x---------------2-------|3-------x---3---3---------------|
E|8-------x---8---3---------------|--------x-----------------------|

  나빠 나빠 나빠                     내가 나빠 나빠
  Nappa nappa nappa                Naega nappa nappa


***********************************
|
| x   Slap
|
| s   Snap finger
|
| A chord diagramA majorA   10 (th fret)
| A chord diagramBB   11 (th fret)
| A chord diagramC majorC   12 (th fret)
|
************************************

↓ Add and view comments below ↓

What do you think about this song and these tabs?

Add your comments, questions, rant or a thumbs up below.

Almost there ...

Sign in to get your own page with links to favourite songs and more. You are just one click away...

Login with Facebook Login with Google