Log in

One click and you are in

Login with Facebook Login with Google

Why sign up and log in

Guitar Tabs Explorer
Crumb bass tabs for Locket

Bass tabs

Tuning: Standard (E A D G)


Intro
G|------------|------------|------------|------------|
D|------------|------------|----3----3--|----2----2--|
A|------------|------------|------------|------------|
E|------------|------------|-1----1-----|-0-----0----|
G|------------|------------|------------|------------|
D|----3----3--|----2----2--|------5--2--|----2----2--|
A|------------|------------|----3-------|------------|
E|-1----1-----|-0-----0----|-1----------|-0----0-----|

G|------------|-----------------------|
D|------5--2--|-------7-7-7-7-7-7-7-7-|
A|----3-------|-----------------------|
E|-1----------|-0--0------------------|
             (fast)
(Rest)


Verse 1

G|--------------|-----------------|
D|--------------|-----------------|
A|--------------|-----------------|  x4
E|-2----2-2----2|-2-2---2—2--1~---|

G|----------------|-----------------|
D|-------------4--|-----4-----------|
A|----------------|-----------------|
E|-2---2-2--2-----|-2-------2--1~---|

G|----------------|-----------------|
D|-----4------4-4-|-----4-4---------|
A|----------------|-----------------|
E|-2-------2-2----|-2-2-------2-1~--|

G|----------------|------------------|
D|-----------4--4-|------4-----------|
A|----------------|------------------|  x3
E|-2---2-2--------|-2-2-----2--2-1~--|

G|-----------------|-------------------|
D|-----------------|-------------------|
A|-----------------|-------------------|
E|-2-2-2-2-2-2-2-2-|-2-2-2-2-1-1-1-0h1-|

Chorus

G|------------|---------------------|
D|-------6-—3-|----3--1-2-3--1-3-1--|
A|----4-------|--------------------4|
E|-2----------|-1-------------------|

G|------------|--------------------|
D|-------6-—8-|-----1-2-3------3-2-|
A|----4-------|-----------3--------|
E|-2----------|-1-----------1------|

G|------------|-----------------|
D|-1-----1----|-----------------|
A|----1-----1-|-3-3-3-3-3-3-3-3-|
E|------------|-----------------|

Post-Chorus

G|----------------|-----------------|
D|-----4------4-4-|-----4-4---------|
A|----------------|-----------------|
E|-2-------2-2----|-2-2------2--1-1-|

G|-----------------|------------------|
D|----4-4------4-4-|------4-----------|
A|-----------------|------------------|
E|-2-------2-2-----|-2-2-----2-2--1~--|


Verse

G|--------------|-----------------|
D|--------------|-----------------|
A|--------------|-----------------|  x4
E|-2----2-2----2|-2-2---2—2--1~---|

G|-----------------|------------------|
D|----4-4------4-4-|------4-4---------|
A|-----------------|------------------|  x3
E|-2-------2-2-----|-2-2-------2--1-1-|

G|------------------|------------------|
D|-----4----4---4---|4---4-------------|
A|------------------|------------------|
E|-2-2---2----2---2-|--2---2-1-1-1-0h1-|


Chorus

G|------------|---------------------|
D|-------6-—3-|----3--1-2-3--1-3-1--|
A|----4-------|--------------------4|
E|-2----------|-1-------------------|

G|------------|--------------------|
D|-------6-—8-|-----1-2-3------3-2-|
A|----4-------|-----------3--------|
E|-2----------|-1-----------1------|

G|------------|-----------------|
D|-1-----1----|-----------------|
A|----1-----1-|-3-3-3-3-3-3-3-3-|
E|------------|-----------------|

       (really fast)
G|------------------------|---------------------|
D|----------6-4-3---------|---3---1-2-3--1-3-1--|
A|-----4-4-------6-4-3----|--------------------4|
E|-2------------------6-4-|-1-------------------|

G|------------|--------------8/10-|  (here you can slide or hammer)
D|-------6-—8-|-----1-2-3---------|
A|----4-------|-------------------|
E|-2----------|-1-----------------|

G|------------|-----------------|
D|-1-----1----|-----------------|
A|----1-----1-|-3-3-3-3-3-3-3-3-|
E|------------|-----------------|


Outro

G|----------------|----------------|
D|-----4-4-----4--|-----3-3-----3--|
A|----------------|----------------| x6
E|-2-2-------2----|-1-1-------1----|

G|-----11-11-----11--|-----10-10-----10--|
D|-------------------|-------------------|
A|-9-9--------9------|-8-8--------8------|
E|-------------------|-------------------|

G|-----------------|------------------|
D|---------11------|---------10-------|
A|--9--9-------9---|--8--8-------8----|
E|-----------------|------------------|

G|-------------13--|------------------|
D|---------11------|------------------|
A|--9--9-----------|--8--8-------8----|
E|-----------------|------------------|

G|---------13--10--|------------------|
D|-----11----------|------10--10------|
A|--9--------------|--8-----------8---|
E|-----------------|------------------|

G|----------------|----------------|
D|-----4-4-----4--|-----3-3-----3--|
A|----------------|----------------|
E|-2-2-------2----|-1-1-------1----|

G|----------------|----------------|
D|-----4-4-----4--|-----3-3----3---|
A|----------------|----------------| x3
E|-2-2-------2----|-1-1------1---1-|

G|----------------|------8-9-10------10-|
D|-----4-4-----4--|------------10-------|
A|----------------|--------------8------|
E|-2-2-------2----|-1-------------------|

G|----11-11---11----|-----10-10----10---|
D|------------------|-------------------|
A|-9--------9----9--|-8-8-------8-----8-| x2
E|------------------|-------------------|

G|------------------|-------------------|
D|-----11---11------|-----10---10-------|
A|-9------------9---|-8-------------8---|
E|------------------|-------------------|

G|---------13--10--|------------------|
D|-----11----------|------10--10------|
A|--9--------------|--8-----------8---|
E|-----------------|------------------|

G|----------------|----------------|
D|-----4-4-----4--|-----3-3-----3--|
A|----------------|----------------|
E|-2-2-------2----|-1-1-------1----|

G|----------------|------------------|
D|-----4-4-----4--|-----3-3----3-3h2-|
A|----------------|------------------|
E|-2-2-------2----|-1-1------1-------|

G|------------|-------------|
D|-1-----1----|-------------|
A|----1-----1-|-3-----3-----|
E|------------|----3-----1--|

G|--------------|-------------|
D|-1-----1------|-------------|
A|----1-----1-1-|-3-----3-----|
E|--------------|----3-----1--|

G|-------------|-------------|
D|-1---------1-|-------------|
A|-------1-----|--3~---------|
E|-------------|-------------|

***********************************

| /  Slide-up
| ~  Let ring
| h  Hammer on

***********************************

Almost there ...

Sign in to get your own page with links to favourite songs and more. You are just one click away...

Login with Facebook Login with Google