Search tabs and chords

Search for song, artist or band

Log in

One click and you are in

Login with Facebook Login with Google

Why sign up and log in

Guitar Tabs Explorer
Crosby And Nash guitar chords for Naked in the rain

Guitar chords with lyrics

Tuning: Standard (E A D G B E)

Key: A chord diagramG MajorG

Difficulty: Intermediate

TUNING: DADDGC

Chord Voicings:
D11:     0-0-4-4-0-0 (lead with bass note)
Am7:     x-0-2-2-0-0
C/F:     3-3-3-2-0-0
Dm11:    0-0-3-3-0-0
Dsus4:   0-0-5-5-0-0
Gm11:    8-8-x-0-0-0
Am11:    7-7-x-0-0-0
A/D:     x-x-0-2-2-1
Csus2/D: x-x-0—0-0-0
A#/D:    x-x-0—3-3-2
C/D:     x-x-0-5-5-4
Csus4/G: x-x-5-5-5-5
Dsus4/A: x-x-7-7-7-7

Song Reference: https://www.youtube.com/watch?v=vhJn6Da_leg

Intro:
A chord diagramD11D11   A chord diagramAm7Am7    A chord diagramD11D11    A chord diagramAm7Am7
A chord diagramD11D11   A chord diagramAm7Am7    A chord diagramC/FC/F    A chord diagramC/FC/F

Verse:
A chord diagramD11D11                    A chord diagramAm7Am7
     The clown sat speechless,
A chord diagramD11D11                       A chord diagramAm7Am7
     looking in his mirror.
A chord diagramD11D11               A chord diagramAm7Am7
     Unable to remember,
A chord diagramC/FC/F                       A chord diagramC/FC/F
     how to paint his face.
A chord diagramD11D11                 A chord diagramAm7Am7
    Staring at the image,
A chord diagramD11D11                 A chord diagramAm7Am7
   slowly getting clearer
A chord diagramD11D11                   A chord diagramAm7Am7
   Wondering if his fear or his heart,
A chord diagramC/FC/F                    A chord diagramC/FC/F
   would win the race.

Chorus:

 A chord diagramDm11Dm11  A chord diagramD7sus4D7sus4  A chord diagramDm11Dm11
When it dawns on you
C|-0-0-0--------0-0|
G|-0-0-0--------0-0|
D|-3-3-3-/5-----3-3|
D|-3-3-3-/5-----3-3|
A|-0-0-0--------0-0|
D|-0-0-0--------0-0|

A chord diagramDm11Dm11   A chord diagramD7sus4D7sus4   A chord diagramDm11Dm11
What it takes from you
C|-0-0-0--------0-0|
G|-0-0-0--------0-0|
D|-3-3-3-/5-----3-3|
D|-3-3-3-/5-----3-3|
A|-0-0-0--------0-0|
D|-0-0-0--------0-0|

A chord diagramGm11Gm11                  A chord diagramAm11Am11
Living under clouds of pain

A chord diagramDm11Dm11    A chord diagramD7sus4D7sus4   A chord diagramDm11Dm11
There's a storm in you
C|-0-0-0--------0-0|
G|-0-0-0--------0-0|
D|-3-3-3-/5-----3-3|
D|-3-3-3-/5-----3-3|
A|-0-0-0--------0-0|
D|-0-0-0--------0-0|

A chord diagramDm11Dm11    A chord diagramD7sus4D7sus4   A chord diagramDm11Dm11
You don't know what to do
C|--0-0-0--------0-0|
G|--0-0-0--------0-0|
D|--3-3-3-/5-----3-3|
D|--3-3-3-/5-----3-3|
A|--0-0-0--------0-0|
D|--0-0-0--------0-0|

A chord diagramGm11Gm11                             A chord diagramAm11Am11
Just when you think you're going insane
N.C.                     A chord diagramD11D11     A chord diagramAm7Am7
You lie naked in the rain

Bridge:
(humming over chords)

A chord diagramD11D11     A chord diagramAm7Am7
A chord diagramD11D11     A chord diagramAm7Am7
A chord diagramC/FC/F     A chord diagramC/FC/F

  A/D                 Csus2/D
C|-1--------1-------|-0--------0-------|
G|----2--------2----|----0--------0----|
D|-------2--------2-|-------0--------0-|
D|-0--------0-------|-0--------0-------|
A|------------------|------------------|
D|------------------|------------------|

  A#/D               A chord diagramC/DC/D
C|-2--------2-------|-4--------4-------|
G|----3--------3----|----5--------5----|
D|-------3--------3-|-------5--------5-|
D|-0--------0-------|-0--------0-------|
A|------------------|------------------|
D|------------------|------------------|

   Csus4/G                 Dsus4/A
C|-5--------5-------|-5-5-—7---7-7-----|
G|----5--------5----|-5-5-—7---7-7-----|
D|-------5-------5--|-5-5—-7---7-7-----|
D|-0--------5-------|-5-5—-7---7-7-----|
A|------------------|------------------|
D|------------------|------------------|

Outro:
A chord diagramD11D11     A chord diagramAm7Am7
A chord diagramD11D11     A chord diagramAm7Am7

A chord diagramD11D11              A chord diagramAm7Am7
Fluttering pages of faces
A chord diagramD11D11         A chord diagramAm7Am7
No two     alike
A chord diagramD11D11             A chord diagramAm7Am7
Choice is your soul's moment
A chord diagramC/FC/F                  N.C.
For its light to strike

Almost there ...

Sign in to get your own page with links to favourite songs and more. You are just one click away...

Login with Facebook Login with Google