Log in

One click and you are in

Login with Facebook Login with Google

Why sign up and log in

Guitar Tabs Explorer
Jim Croce bass tabs for Bad bad leroy brown

Bass tabs

Tuning: Standard (E A D G)

Key: Ab

Difficulty: Intermediate

https://www.youtube.com/watch v=A84imhN_Q7o
Unfortnually () in this recording you can't hear the bass gitaar because the bass DRUM
is overwelming the whole recording, not funny at all.
Words and Music by Jim Croce; Arrangement for Bigband by Dave Wolpe.
Tempo = Moderate Shuffle (132)
🏷Legenda: r = rest
Intro:
  0 (Hit on snare)
G|--------x-||---5---5--|---5---5--|---5---5--|----------||
D|----------||-----9----|-----9----|-----9----|----------||
A|----------||-6--------|-6--------|-6------6-|----------||
E|----------||----------|----------|----------|-----6----||


Part 1:
  5
G|-------5--|-8-5------|---2-5----|---5-2----|-0-7-0-0--|-1---1----|----------|----3-3---3-3------||
D|---5-8----|-----8-5--|-3--------|-3-----3--|----------|---1---4--|-3-----0--|-1-----------------||
A|-6--------|----------|-------3--|----------|----------|----------|---3-1----|--------------1----||
E|----------|----------|----------|----------|----------|----------|----------|-------------------||


Part 2:
  13
G|----------|---5-3-0--|-----0-1--|-2-0------|-----0-0--|-1-1------|----------|----3-3---3-3--3-5----||
D|-1-1------|-1--------|-3-3------|-----3----|---0------|-----4-4--|-3-3-----1|----------------------||
A|-----1-1--|----------|----------|----------|----------|----------|-----1-1--|----------------------||
E|----------|----------|----------|-------1--|-3--------|----------|----------|----------------------||

Part 3:
  21
G|----------|--3-------|----------|----------|-----0----|----------|---------------|----0-3---||
D|-1-r-1-r--|-1--1-----|----------|-3-1------|---0------|---1------|--------------1|-(1)------||
A|----------|-------3--|-----0-3--|-----3----|----------|-----3----|------1-1------|------1---||
E|----------|----------|-1-3------|-------1--|-3-----3--|-4-----4--|-1-1-----------|----------||


Part 4 With Repeat with First and Second Ending:
  29
G|---5-3-0--|----------|-----2-5--|----------|----------|---1------|----------|---0-3----|
D|-6--------|-1-0------|-3-5------|-3-1------|----------|-----4-4--|-3-----0--|-1--------|
A|----------|-----3-1--|----------|-----3----|---0-2----|----------|---3-1----|-------1--|
E|----------|----------|----------|-------1--|-3-----3--|-4--------|----------|----------|

  37                                 43 (First Ending)
G|-------5--|-8-7-5----|----------|----------|----------|--1-------||----------|---0-3----||
D|---5-8----|-------8--|----------|-3-1------|----------|----4-4---||-3-----0--|-1--------||
A|-6--------|----------|-8---0-3--|-----3----|---0-2----|----------||---3-1----|-------1--||
E|----------|----------|---1------|-------1--|-3-----3--|4---------||----------|----------||


Part 4 Repeat Second Ending:
  29
G|---5-3-0--|----------|-----2-5--|----------|----------|---1------|----------|---0-3----|
D|-6--------|-1-0------|-3-5------|-3-1------|----------|-----4-4--|-3-----0--|-1--------|
A|----------|-----3-1--|----------|-----3----|---0-2----|----------|---3-1----|-------1--|
E|----------|----------|----------|-------1--|-3-----3--|-4--------|----------|----------|

  37                                 45 (Second Ending)
G|-------5--|-8-7-5----|----------|----------|----------|--1-------||----------|---0-3-5--||
D|---5-8----|-------8--|----------|-3-1------|----------|----4-4---||-3-----0--|-1--------||
A|-6--------|----------|-8---0-3--|-----3----|---0-2----|----------||---3-1----|----------||
E|----------|----------|---1------|-------1--|-3-----3--|4---------||----------|----------||


Part 5:
  47                     Drum Fill to Key Change (F)
G|----------|--3-------|----------|--------5-|-(5)------|----------|----------|----5-5---5-5--5-7----||
D|-1-r-1-r--|-1--1-----|----------|-----3-4--|----------|----------|----------|----------------------||
A|----------|-------3--|----------|---3------|----------|----------|----------|----------------------||
E|----------|----------|-1-0-1-0--|-1--------|----------|----------|----------|----------------------||


Part 6:
  55                         Drum Fill
G|----------|--5-------|----------|------------------|----------|----------|----------|----------||
D|-3-r-3-r--|-3--3--0--|-------0--|-4--5-4-5-----6-7-|-(6)------|----------|----------|---------3||
A|----------|----------|-----2----|------------------|----------|----------|----------|-3--------||
E|----------|----------|-3-3------|------------------|----------|----------|----------|----------||


Part 7:
  63
G|------------|----------|-------2--|-0--------|----------|----------|----------|-----------||
D|-(3)-3-1-1--|-3-0------|-----0----|---0------|-------2--|----------|---0------|-r--1--2-3-||
A|------------|-----3-0--|---2------|----------|-0-0-4----|-1-1------|-----3-3--|-----------||
E|------------|----------|-3--------|-----3-3--|----------|-----4-4--|-3------0-|-----------||


Part 8:
  71
G|----------|----------|--0--0-0--0-0|-(0)------|-----1-1--|-3-3-1-1--|-0-0-------|----5-5---5-5--5-7----||
D|-r--1-r--1|-r--0--0--|-4-----------|----0-----|---1------|----------|----------3|----------------------||
A|----------|----------|-------------|----------|----------|----------|-----3-3---|----------------------||
E|----------|----------|-------------|------3-3-|-4--------|----------|-----------|----------------------||


Part 9:
  79
G|----------|--5-------|----------|-0--------|----------|----------|----------|----------|
D|-3-r-3-r--|-3--3--0--|-------0--|---3-0----|-----2----|---3-0----|-------1--|-3-1-0----|
A|----------|----------|---0-2----|----------|-0-4---0--|-1-----1--|-----3----|-------3--|
E|----------|----------|-3--------|-------3--|----------|----------|-3-3------|----------|

  97
G|----------|----------|----------|----------||
D|-----2----|---3-0----|-------1--|-3--------||
A|-0-4---0--|-1-----1--|-----3----|---3------||
E|----------|----------|-3-3------|-----1-r--||


Ending:
  103
G|---7----7--|---7----7--|---7----7--|----------||
D|-----11----|-----11----|-----11----|----------||
A|-8---------|-8---------|-8-------8-|----------||
E|-----------|-----------|-----------|-r---1----||

Almost there ...

Sign in to get your own page with links to favourite songs and more. You are just one click away...

Login with Facebook Login with Google