Log in

One click and you are in

Login with Facebook Login with Google

Why sign up and log in

Guitar Tabs Explorer
Creedence Clearwater Revival tabs for Sinister purpose

Sinister Purpose tab by Creedence Clearwater Revival

Creedence Clearwater Revival tabs for Sinister purpose

Guitar tabs

Sinister Purpose
By Creedence Clearwater Revival
Album: Green River
Words and lyrics by: John Fogerty
Intro/Post-chorus:
E----6\--5\--3\--0/--3--0----------------------------
B----6\--5\--3\--0/--3--0----------------------------
G----------------------------------------------------
D------------------------------------------------2---
A-----------------------------------------5--7---2---
E----------------------------5-5--3-5-/7---------0---


Verse:
E---------------------------------------------------
B---------------------------------------------------
G----9------------------9---------------------------
D----9-----------5------9---------------------------
A----7-----5--7-----7---7----------------7----------
E-------7---------------------7--5--3--0------------


Chorus:
A chord diagramC5C5              A chord diagramE5E5
 Sinister Purpose
A chord diagramC5C5                 A chord diagramE5E5
 Knockin^Ò at your door;
A chord diagramC5C5                A chord diagramE5E5
 Come and take my hand.

*This file is all my own work.

Other versions of Sinister Purpose

Sinister purposeChords

Almost there ...

Sign in to get your own page with links to favourite songs and more. You are just one click away...

Login with Facebook Login with Google