Search tabs and chords

Search for song, artist or band

Log in

One click and you are in

Login with Facebook Login with Google

Why sign up and log in

Guitar Tabs Explorer
Creedence Clearwater Revival bass tabs for Lodi (Ver. 2)

Bass tabs

  • Tuning: Standard tuning
  • Difficulty: Novice
-------------------------------------------------------------------
           Artist - Creedence Clearwater Revival
          ***************************************
                      Song - Lodi
                     *************
               Album - Green River (1969)
              ****************************
                  Tabbed By - Ayreon77
                 **********************
-------------------------------------------------------------------
Tuning = Standard

INTRO
******
G|-------------|-------------|-----------|---------------|
D|-8~~~-8------|-8~~~-8------|-----------|-8~~~-8-5----5-|
A|--------8~~~-|--------8~~~-|-8~~-8-6-8-|-----------8---|
E|-------------|-------------|-----------|---------------|


--------------------------------
00:10
VERSE 1
********
G|-------------|-------------|----------|-------------|
D|-8~~~-8------|-8~~~-8------|----------|-8~~~-8------|
A|--------8~~~-|--------8~~~-|-6~~~-6-6-|--------8~~~-|
E|-------------|-------------|----------|-------------|


G|----------|-------------|----------|----------|
D|-8~~~-8-7-|-5~~~-5------|----------|----------|
A|----------|--------8~~~-|-6~~~-6-6-|-8~~~-8-8-|
E|----------|-------------|----------|----------|

00:25
G|----------|-------------|----------|------------------|
D|-8~~~-8-7-|-5~~~-5------|----------|------------------|
A|----------|--------8~~~-|-6~~~-6-6-|------------s---8-|
E|----------|-------------|----------|-6~~-6-6-6-8\10---|

  Oh Lord
G|-------------|-------------|-------------|----------------|
D|-8~~~-8------|-------------|-------------|----------------|
A|--------8~~~-|-8~~~-8------|-6~~~-6------|------------5-8-|
E|-------------|--------8~~~-|--------6~~~-|-6~~~-6-6-6-----|

--------------------------------
00:40
VERSE 2
********
G|-------------|-------------|----------|-------------|
D|-8~~~-8------|-8~~~-8------|----------|-8~~~-8------|
A|--------8~~~-|--------8~~~-|-6~~~-6-6-|--------8~~~-|
E|-------------|-------------|----------|-------------|


G|----------|-------------|----------|----------|
D|-8~~~-8-7-|-5~~~-5------|----------|----------|
A|----------|--------8~~~-|-6~~~-6-6-|-8~~~-8-8-|
E|----------|-------------|----------|----------|

00:55
G|----------|-------------|----------|------------------|
D|-8~~~-8-7-|-5~~~-5------|----------|------------------|
A|----------|--------8~~~-|-6~~~-6-6-|------------s---8-|
E|----------|-------------|----------|-6~~-6-6-6-8\10---|

  Oh Lord
G|-------------|-------------|-------------|----------------|
D|-8~~~-8------|-------------|-------------|----------------|
A|--------8~~~-|-8~~~-8------|-6~~~-6------|------------5-8-|
E|-------------|--------8~~~-|--------6~~~-|-6~~~-6-6-6-----|


--------------------------------
01:10
BREAK
******
G|---------------|---------------|------------|------------------|
D|-8~~~-8--------|-8~~~-8--------|-------8~~~-|------------------|
A|--------8~~~-8-|--------8~~~-8-|-6~~-6------|------------s---8-|
E|---------------|---------------|------------|-6~~-6-6-6-8\10---|


G|---------------|---------------|--------------|------------------|
D|-8~~~-8--------|-8~~~-8--------|--------------|------------------|
A|--------8~~~-8-|--------8~~~-8-|-8~~-8-6~~~-6-|------------s---8-|
E|---------------|---------------|--------------|-6~~-6-6-6-8\10---|


--------------------------------
01:26
VERSE 3
********
G|---------------|---------------|------------|---------------|
D|-8~~~-8--------|-8~~~-8--------|------------|-8~~~-8--------|
A|--------8~~~-8-|--------8~~~-8-|-6~~~-6-----|--------8~~~-8-|
E|---------------|---------------|--------6~~-|---------------|


G|----------|-------------|----------|----------|
D|-8~~~-8-7-|-5~~~-5------|----------|----------|
A|----------|--------8~~~-|-6~~~-6-6-|-8~~~-8-8-|
E|----------|-------------|----------|----------|

01:41
G|----------|-------------|----------|------------------|
D|-8~~~-8-7-|-5~~~-5------|----------|------------------|
A|----------|--------8~~~-|-6~~~-6-6-|------------s---8-|
E|----------|-------------|----------|-6~~-6-6-6-8\10---|

  Oh Lord
G|-------------|-------------|-------------|-------------|
D|-8~~~-8------|-------------|-------------|-------------|
A|--------8~~~-|-8~~~-8------|-6~~~-6------|-------------|
E|-------------|--------8~~~-|--------6~~~-|-6~~~-6-6--6-|


--------------------------------
01:56
BREAK
******
G|---------------------------------|
D|---------------------------------|
A|-8~~~-8~~~-----------10~~~-10~~~-|
E|-----------8~~~-8~~~-------------|


--------------------------------
02:02
VERSE 4 - Key Change
********
G|--------------|--------------|--------------|-------------|-------------|--------------|
D|--------------|--------------|--------------|-------------|-------------|--------------|
A|--------10~~~-|--------10~~~-|--------10~~~-|-----------7-|-8~~~-8-8~~~-|--------10~~~-|
E|-8~~~-8-------|-8~~~-8-------|-8~~~-8-------|-8~~~-8-8----|-------------|-8~~~-8-------|


G|-----------|------------|----------|-------------|
D|-10~~-10-9-|-7~~-7------|----------|-------------|
A|-----------|-------10~~-|-8~~~-8-8-|-10~~~-10-10-|
E|-----------|------------|----------|-------------|

02:21
G|-----------|------------|----------|-------------|
D|-10~~-10-9-|-7~~-7------|----------|-------------|
A|-----------|-------10~~-|-8~~~-8-8-|-------------|
E|-----------|------------|----------|-8~~~-8-8~~~-|

  Oh Lord
G|------|-----------------|----------------|-------------|-------------|
D|------|-10~~~-10--------|----------------|-------------|-------------|
A|-7-10-|----------10~~~~-|-10~~~-10-------|-8~~~-8------|-------------|
E|------|-----------------|----------10~~~-|--------8~~~-|-8~~~-8-8~~~-|

  Oh Lord
G|-----------------|----------------|-------------|---------------------|
D|-10~~~-10--------|----------------|-------------|---------------------|
A|----------10~~~~-|-10~~~-10-------|-8~~~-8------|--------------s---10-|
E|-----------------|----------10~~~-|--------8~~~-|-8~~~-8-8-8-10\12----|


--------------------------------
02:43
OUTRO SOLO
***********
G|--------------|----------------|------------|----------------------------|
D|--------------|----------------|------------|---------------------s---10-|
A|--------10~~~-|--------10~~~-7-|-8~~~-8-8-8-|-8----------s---10-10\12----|
E|-8~~~-8-------|-8~~~-8---------|------------|---8~~~-8-10\12-------------|

02:51
G|--------------|--------------|-----------------|---------------------|
D|--------------|--------------|-----------------|---------------------|
A|--------10~~~-|--------10~~~-|-10~~~-10-8~~~-8-|--------------s------|
E|-8~~~-8-------|-8~~~-8-------|-----------------|-8~~~-8-8-8-10\12----|

                    Fade Out.........................................
G|--------------|----------------|------------|---------------------|
D|--------------|----------------|------------|---------------------|
A|--------10~~~-|--------10~~~-7-|-8~~~-8-8-8-|--------------s---10-|
E|-8~~~-8-------|-8~~~-8---------|------------|-8~~~-8-8-8-10\12----|



ENJOY.............

Lodi bass tab

Creedence Clearwater Revival bass tabs for Lodi (Ver. 2) From there album, Green River (1969)

Other versions of Lodi

LodiBass tabs

Almost there ...

Sign in to get your own page with links to favourite songs and more. You are just one click away...

Login with Facebook Login with Google