Log in

One click and you are in

Login with Facebook Login with Google

Why sign up and log in

Guitar Tabs Explorer
Creedence Clearwater Revival bass tabs for Good golly miss molly

Good Golly Miss Molly bass tab by Creedence Clearwater Revival

Creedence Clearwater Revival bass tabs for Good golly miss molly

Bass tabs

Good Golly Miss Molly.btab
CCR
TablEdited by Poppamies

Tuning : E A D G 	Time Signature: 4/4

 |    |    |    |    |    |    |    |
|--------------------------------|--------------------------------|
|------------1-------1-----------|------------1-------1-----------|
|--------3-------------------3---|--------3-------------------3---|
|1---1---------------------------|1---1---------------------------|

 |    |    |    |    |    |    |    |
|--------------------------------|--------------------------------|
|------------1-------1-----------|------------1-------1-----------|
|--------3-------------------3---|--------3-------------------3---|
|1---1---------------------------|1---1---------------------------|

 |    |    |    |    |    |    |    |
|------------1-------1-----------|------------1-------1-----------|
|--------3-------------------3---|--------3-------------------3---|
|1---1---------------------------|1---1---------------------------|
|--------------------------------|--------------------------------|

 |    |    |    |    |    |    |    |
|--------------------------------|--------------------------------|
|------------1-------1-----------|------------1-------1-----------|
|--------3-------------------3---|--------3-------------------3---|
|1---1---------------------------|1---1---------------------------|

 |    |    |    |    |    |    |    |
|--------0---3-------3-------0---|------------1-------1-----------|
|--------------------------------|--------3-------------------3---|
|3---3---------------------------|1---1---------------------------|
|--------------------------------|--------------------------------|

 |    |    |    |    |    |    |    |
|--------------------------------|--------------------------------|
|------------1-------1-----------|--------------------------------|
|--------3-------------------3---|--------------------------------|
|1---1---------------------------|1-------------------------------|

 |    |    |    |    |    |    |    |
|--------------------------------|--------------------------------|
|------------1-------1-----------|------------1-------1-----------|
|--------3-------------------3---|--------3-------------------3---|
|1---1---------------------------|1---1---------------------------|

 |    |    |    |    |    |    |    |
|--------------------------------|--------------------------------|
|------------1-------1-----------|------------1-------1-----------|
|--------3-------------------3---|--------3-------------------3---|
|1---1---------------------------|1---1---------------------------|

 |    |    |    |    |    |    |    |
|------------1-------1-----------|------------1-------1-----------|
|--------3-------------------3---|--------3-------------------3---|
|1---1---------------------------|1---1---------------------------|
|--------------------------------|--------------------------------|

 |    |    |    |    |    |    |    |
|--------------------------------|--------------------------------|
|------------1-------1-----------|--------------------------------|
|--------3-------------------3---|------------1-------2-------3---|
|1---1---------------------------|1---4---------------------------|

 |    |    |    |    |    |    |    |
|--------0---3-------3-------0---|------------1-------1-----------|
|--------------------------------|--------3-------------------3---|
|3---3---------------------------|1---1---------------------------|
|--------------------------------|--------------------------------|

 |    |    |    |    |    |    |    |
|--------------------------------|--------------------------------|
|--------------------------------|--------------------------------|
|------------------------1-------|----3-----------1---------------|
|1-----------4-------------------|------------------------4-------|

 |    |    |    |
|--------------------------------|
|----------and so on.......------|
|--------------------------------|
|1-------------------------------|

http://www.geocities.com/jani_bjorklund/janis.html


Jan Bjorklund, Finland

Almost there ...

Sign in to get your own page with links to favourite songs and more. You are just one click away...

Login with Facebook Login with Google