Search tabs and chords

Search for song, artist or band

Log in

One click and you are in

Login with Facebook Login with Google

Why sign up and log in

Guitar Tabs Explorer
Creedence Clearwater Revival bass tabs for Commotion (Ver. 2)

Bass tabs

  • Tuning: Standard tuning
  • Difficulty: Novice
-------------------------------------------------------------------
           Artist - Creedence Clearwater Revival
          ***************************************
                    Song - Commotion
                   ******************
               Album - Green River (1969)
              ****************************
                  Tabbed By - Ayreon77
                 **********************
-------------------------------------------------------------------
Tuning = Standard
00:13
INTRO
******
G|-------------|------------|------------|
D|-7~-6~-5~----|----7-6-5---|----7-6-5---|
A|----------8~-|-5~-------8-|-5~-------8-|
E|-------------|------------|------------|


------------------------
00:19
VERSE 1
********
G|------------|------------|------------|------------|
D|----7-6-5---|----7-6-5---|----7-6-5---|----7-6-5---|
A|-5~-------8-|-5~-------8-|-5~-------8-|-5~-------8-|
E|------------|------------|------------|------------|X2


------------------------
00:34
CHORUS
*******
G|-----------------|-----------------|-------------------|-----------------|
D|-----------------|-----------------|--h----------------|-----------------|
A|-5-5-5-5-5-5-5-5-|-5-5-5-5-5-5-5-5-|-0-5-5-5-5-5-5-5-5-|-5-5-5-5-5-5-5-5-|
E|-----------------|-----------------|-------------------|-----------------|

------------------------
00:42
BREAK
******
G|------7-------|------7-------|------7-------|------7-------|
D|--------7-5---|--------7-5---|--------7-5---|--------7-5---|
A|-5~~--------8-|-5~~--------8-|-5~~--------8-|-5~~--------8-|
E|--------------|--------------|--------------|--------------|


------------------------
00:49
VERSE 2
********
G|------7-------|------7-------|------7-------|------7-------|
D|--------7-5---|--------7-5---|--------7-5---|--------7-5---|
A|-5~~--------8-|-5~~--------8-|-5~~--------8-|-5~~--------8-|
E|--------------|--------------|--------------|--------------|X2


------------------------
01:04
CHORUS
*******
G|-----------------|-----------------|-------------------|-----------------|
D|-----------------|-----------------|--h----------------|-----------------|
A|-5-5-5-5-5-5-5-5-|-5-5-5-5-5-5-5-5-|-0-5-5-5-5-5-5-5-5-|-5-5-5-5-5-5-5-5-|
E|-----------------|-----------------|-------------------|-----------------|


------------------------
01:12
GUITAR SOLO
************
G|-------------|-------------|-------------|-------------|-------------|-------------|
D|-------------|-------------|-------------|-------------|-------------|-------------|
A|-5~~-8-5-----|-5~~-8-5-----|-5~~-8-5-----|-5~~-8-5-----|-5~~-8-5-----|-5~~-8-5-----|
E|---------8-5-|---------8-5-|---------8-5-|---------8-5-|---------8-5-|---------8-5-|


G|-------------|-------------|-------------|-------------|-------------|
D|-------------|-------------|-------------|-------------|-------------|
A|-5~~-8-5-----|-5~~-8-5-----|-5~~-8-5-----|-5~~-8-5-----|-5~~-8-5-----|
E|---------8-5-|---------8-5-|---------8-5-|---------8-5-|---------8-5-|


------------------------
01:33
VERSE 3
********
G|------------|------------|------------|------------|
D|----7-6-5---|----7-6-5---|----7-6-5---|----7-6-5---|
A|-5~-------8-|-5~-------8-|-5~-------8-|-5~-------8-|
E|------------|------------|------------|------------|X2


------------------------
01:47
CHORUS
*******
G|-----------------|-----------------|-------------------|-----------------|
D|-----------------|-----------------|--h----------------|-----------------|
A|-5-5-5-5-5-5-5-5-|-5-5-5-5-5-5-5-5-|-0-5-5-5-5-5-5-5-5-|-5-5-5-5-5-5-5-5-|
E|-----------------|-----------------|-------------------|-----------------|


G|-------------------|-----------------|
D|--h----------------|-----------------|
A|-0-5-5-5-5-5-5-5-5-|-5-5-5-5-5-5-5-5-|
E|-------------------|-----------------|



01:59
GUITAR SOLO
************
G|-------------|-------------|-------------|-------------|-------------|-------------|
D|-------------|-------------|-------------|-------------|-------------|-------------|
A|-5~~-8-5-----|-5~~-8-5-----|-5~~-8-5-----|-5~~-8-5-----|-5~~-8-5-----|-5~~-8-5-----|
E|---------8-5-|---------8-5-|---------8-5-|---------8-5-|---------8-5-|---------8-5-|


G|-------------|-------------|-------------|-------------|-------------|-------------|
D|-------------|-------------|---------5---|---------5---|---------5---|---------5---|
A|-5~~-8-5-----|-5~~-8-5-----|-5~~-8-5---8-|-5~~-8-5---8-|-5~~-8-5---8-|-5~~-8-5---8-|
E|---------8-5-|---------8-5-|-------------|-------------|-------------|-------------|


G|-------------|-------------|--------------|---------------------------------------|
D|---------5---|---------5---|--------5~~~~-|---------------------------------------|
A|-5~~-8-5---8-|-5~~-8-5---8-|-5--8-5-------|-5555555555555555555555555555555555555-|
E|-------------|-------------|--------------|---------------------------------------|



ENJOY.............

Commotion bass tab

Creedence Clearwater Revival bass tabs for Commotion (Ver. 2) Song off there album, Green River (1969)

Other versions of Commotion

CommotionBass tabs

Almost there ...

Sign in to get your own page with links to favourite songs and more. You are just one click away...

Login with Facebook Login with Google