Log in

One click and you are in

Login with Facebook Login with Google

Why sign up and log in

Guitar Tabs Explorer
Creed tabs for On my sleeve

Guitar tabs with lyrics

--------------------
Creed - On My Sleeve			(tabbed by 2Luke)
--------------------


TUNING: down 1 and a half steps or drop A chord diagramC#C# standard.
------  (from standard tune down 1 and a half steps)

One of my favourites off Creed's 2009 album "FUll Circle".
Mark Tremonti uses a 12 string during the intro/verse picking.

Dont forget to comment/rate this tab if you use it! :D

Intro
-----
	C7M
A chord diagramC#C#|---------------0-----------|------------------------|
A chord diagramG#G#|------------------3--------|-------------0----------|
A chord diagramE MajorE |------------0--------0-----|-------0-------------0--|
A chord diagramBB |---------4--------------4--|----------4-------------|
A chord diagramF#F#|------2--------------------|--3---------------3-----|
A chord diagramC#C#|---0-----------------------|------------------------|

   D7M
--------------------------|---------------0----------|
-------------1p--0--------|---------3--------5--3----|
-------0---------------0--|------------0-------------|
----------0---------0-----|--------------------------|
--------------------------|--3/5---------------------|
--3-----------------------|--------------------------|

  C7M
--------------0-----------|------------------------|
-----------------3--------|-------------0----------|
-----------0--------0-----|-------0-------------0--|
--------4--------------4--|----------4-------------|
-----2--------------------|--3---------------3-----|
--0-----------------------|------------------------|

   D7M
--------------------------|---------------0--3-\-2-----|
-------------1p--0--------|---------3------------------|
-------0---------------0--|------------0---------------|
----------0---------0-----|----------------------------|
--------------------------|--3/5-----------------------|
--3-----------------------|----------------------------|


Verse (x2)
-----

|---------------0-----------|------------------------|
|------------------3--------|-------------0----------|
|*-----------0--------0-----|-------0-------------0--|
|*--------4--------------4--|----------4-------------|
|------2--------------------|--3---------------3-----|
|---0-----------------------|------------------------|
	    The   eyes   around   me   are   so   cold


|--------------------------|---------------0----------|
|-------------1p--0--------|---------3--------5--3----|
|-------0---------------0--|------------0-------------|
|----------0---------0-----|--------------------------|
|--------------------------|--3/5---------------------|
|--3-----------------------|--------------------------|


|--------------0-----------|------------------------|
|-----------------3--------|-------------0----------|
|-----------0--------0-----|-------0-------------0--|
|--------4--------------4--|----------4-------------|
|-----2--------------------|--3---------------3-----|
|--0-----------------------|------------------------|
		With  every  chance  they  steal  my  soul...

|--------------------------|---------------0----------|
|-------------1p--0--------|---------3--------5--3----|
|-------0---------------0--|------------0------------*|
|----------0---------0-----|-------------------------*|
|--------------------------|--3/5---------------------|
|--3-----------------------|--------------------------|
						(*repeat x2)

   C7M
|-----------------------0--|--------------------------|
|-----------------0--------|-----0--------------------|
|--------------0-----0-----|--------0-----0-----------|
|-------0h--2--------------|-----------2--------------|
|--3-----------------------|--------------------------|
|--------------------------|--------------------3--2--|
			Can       you         fix


   A chord diagramEm9Em9
|-----------------------0--|-------------------------|
|--------------3-----------|-----3-------------------|
|-----------------0--------|--------0-----0----------|
|--------------------4-----|-----------4-------------|
|-------0h--2--------------|-------------------0--2--|
|--0-----------------------|-------------------------|
      what's        made         to be            broken


   A chord diagramF#F#
|-----------------------0--|-----------------------|--3----------------|
|-----------------0--------|-----0-----------------|--3----------------|
|--------------0-----0-----|--------0--------------|--2----------------|
|-------0h--2--------------|-----------2-----------|--0----------------|
|--3-----------------------|-----------------------|--0----------------|
|--------------------------|-----------------------|--2----------------|
                      I      can't      fix             what's mean't to be


Chorus
------

     A chord diagramG+G
|---------------------------|------------------------|---------------------------|
|---------------------------|------------------------|---------------------------|
|---9-----------------------|------------------------|---4-----------------------|
|---9-----------------------|---12-------------------|---5-----------------------|
|---7-----------------------|---10-------------------|---5-----------------------|
|---7-----------------------|---8--------------------|---3-----------------------|
         My   Heart   is   tattooed   on   my   sleeve


     C3
|------------------------|--------------------------------|
|------------------------|--------------------------------|
|------------------------|---5----------------------------|
|---4--------------------|---5----------------------------|
|---5--------------------|---3----------------------------|
|---2--------------------|---3-------------------0--3--2--|
...hiding, no          It only hurts to breathe


     A chord diagramG+G
|---------------------------|------------------------|---------------------------|
|---------------------------|------------------------|---------------------------|
|-------------9-------------|------------------------|---4-----------------------|
|-------------9-------------|---12-------------------|---5-----------------------|
|-------------7-------------|---10-------------------|---5-----------------------|
|---0---------7-------------|---8--------------------|---3-----------------------|
         My   Heart   is   tattooed   on   my   sleeve

     C3
|------------------------|---------------------------|
|------------------------|---------------------------|
|------------------------|---5-----------------------|
|---4--------------------|---5-----------------------|
|---5--------------------|---3-----------------------|
|---2--------------------|---3-----------------------|
...blinding, no          It only hurts to breathe*


(Repeat Verse)

(Repeat Chorus)


*(Last Part of Chorus 2 - transition to bridge)
    A chord diagramD MajorD
|---------------------------------------|----------------------------|
|---------------------------------------|----------------------------|
|---5-----------------------------------|-/-9-7-5--------------------|
|---5-----------------------------------|---------9-7-5--------------|
|---3-----------------------------------|---------------9-7-5--------|
|---3-----------------------------------|---------------------8-7-5--|
it only hurts it only hurts...    to breathe


Bridge
------

    A chord diagramE minorEm
|----------------------------------------|---------------------------------------|
|----------------------------------------|---------------------------------------|
|------12--12--12--11---11---------------|-----12--12--12--11---11---------------|
|------x---x---x---x----x----------------|-----x---x---x---x----x----------------|
|------10--10--10--9----9----------------|-----10--10--10--9----9----------------|
|--0------------------------(15)\--0--3--|-0-------------------------------0--2--|
                               I    shout   out                   Can  you  hear   me?

    A chord diagramD/F#D/F#
|----------------------------------------|---------------------------------------|
|----------------------------------------|---------------------------------------|
|------17--17--17--16--16--16------------|-----17--17--17--16--16--16------------|
|------x---x---x---x---x---x-------------|-----x---x---x---x----x----------------|
|------15--15--15--14--14--14------------|-----15--15--15--14--14--14------------|
|--3-------------------------------0--3--|-2-------------------------------------|
			            Mistakes   have     cost     me       years

    A chord diagramE minorEm
|----------------------------------------|---------------------------------------|
|----------------------------------------|---------------------------------------|
|------12--12--12--11---11---------------|-----12--12--12--11---11---------------|
|------x---x---x---x----x----------------|-----x---x---x---x----x----------------|
|------10--10--10--9----9----------------|-----10--10--10--9----9----------------|
|--0------------------------(15)\--0--3--|-0-------------------------------0--2--|
			   Do   they   cost   you?               Are  you   like   me?

    A chord diagramG+G
|----------------------------------------|
|----------------------------------------|
|------17--17--17--16--16--16------------|
|------x---x---x---x---x---x-------------|
|------15--15--15--14--14--14------------|
|--3-------------------------------0--3--|
			           Tell


  A chord diagramD/F#D/F#
|-------------------------------------------------------|----|
|------------------/-13-12-10---------------------------|----|
|-----17--17--17--------------12-11-9-------------------|----|
|-----x---x---x------------------------12-10-9----------|----|
|-----15--15--15--------------------------------12-10-9-|-7--|
|-2-----------------------------------------------------|-0--|
  me  please...	                                       ( ^ Chorus Starts
							    on this note)


(Repeat chorus)

(End song with bridge)


_____________________________________________
comment/rate
tabbed by 2Luke Oct 28th 2009.

Shoutout to B.O.B of USP!

Other versions of On My Sleeve

On my sleeve (Ver. 2)Tabs
On my sleeve - introTabs

Almost there ...

Sign in to get your own page with links to favourite songs and more. You are just one click away...

Login with Facebook Login with Google