Log in

One click and you are in

Login with Facebook Login with Google

Why sign up and log in

Guitar Tabs Explorer
Cradle Of Filth tabs for Temptation

Guitar tabs

acustica soft   ( CON ECO )
-----------------------------------------------------|
-----------------------------------------------------|
-6--3------------------------------------------------|
-6--3--6--4------------------------------------------|
-4--1--6--4------------------------------------------|
-------4--2------------------------------------------| x4
distorsa leggera
----------------------------------------------------|
----------------------------------------------------|
-3--6--8--------------------------------------------|
-3--6--8--------------------------------------------|
-1--4--6--------------------------------------------|
----------------------------------------------------|  x2

distorso strisciando down ( slow )
----------------------------------------------------|
----------------------------------------------------|
-8--------------------------------------------------|
-8--------------------------------------------------|
-6--------------------------------------------------|
----------------------------------------------------|

1 strofa
----------------------------------------------------|
----------------------------------------------------|
----------7-10-7---------------7--10--7-------------|
-6-5-3--3-7-10-7---3-6-5-3---4-7--10--7-------------|
------6---5-8--5-----------6---5---8--5-------------|
----------------------------------------------------|  x6
 n.b. la sesta volta si non si suonano gli ultimi due accordi


-------------------------------------------------------|
-------------------------------------------------------|
-3-----------------------------------------------------|
-3------4----------------------------------------------|
-1------4----------------------------------------------|
--------2----------------------------------------------|  x4

acustica soft
--------------------------------------------------------|
--------------------------------------------------------|
-6--3---------------------------------------------------|
-6--3--6--4---------------------------------------------|
-4--1--6--4---------------------------------------------|
-------4--2---------------------------------------------| x4

distorsa leggera
-------------------------------------------------------|
-------------------------------------------------------|
-3--6--8-----------------------------------------------|
-3--6--8-----------------------------------------------|
-1--4--6-----------------------------------------------|
-------------------------------------------------------|  x2

distorsa
-------------------------------------------------------|
-------------------------------------------------------|
----------7-10-7--------------7--10--7-----------------|
-6-5-3--3-7-10-7---3-6-5-3--4-7--10--7-----------------|
------6---5-8--5----------6---5---8--5-----------------|
-------------------------------------------------------| X2
n.b. la seconda volta si non si suonano gli ultimi due accordi

----------------------------------------|
----------------------------------------|
-3-----------6---3-----------6-------6--|
-3-------4---6---3---6---4---6---4---6--|
-1-------4---4---1---6---4---4---4---4--|
---------2-----------4---2-------2------|


--------------------------------|
--------------------------------|
-3---------------3--------------|
-3--------4---3---3---6---------|
-1--------4---3---1---6---------|
----------2---1-------4---------|

-------------------|
-------------------|
------6------------|
--4---6---6--------|
--4---4---6--------|
--2-------4--------| x3

----------------------------------------------------|
----------------------------------------------------|
----------7-10-7---------------7--10--7-------------|
-6-5-3--3-7-10-7----3-6-5-3--4-7--10--7-------------|
------6---5-8--5-----------6---5---8--5-------------|
ⓘ Guitar tab for 'Temptation' by Cradle Of Filth, a symphonic metal band formed in 1991 from Suffolk, England

Almost there ...

Sign in to get your own page with links to favourite songs and more. You are just one click away...

Login with Facebook Login with Google