Log in

One click and you are in

Login with Facebook Login with Google

Why sign up and log in

Guitar Tabs Explorer
Cradle Of Filth bass tabs for Nymphetamine fix

Bass tabs

  • Tuning: Drop C
  • Difficulty: Intermediate
Tuning - Drop C

        Intro
F |----------------------------------|
C |----------------------------------| X2
G |----------------------------------|
C |--0~~----3~~----8----5~~----12~~--|

         Verse
F |----------------------------------|
C |----------------------------------| X4
G |----------------------------------|
C |--0~~----3~~----8----5~~----12~~--|

                    Pre Chorus
F |--------------------|--------------------|--------------------|--------------------|
C |--------------------|--------------------|--------------------|--------------------|
G |--------------------|--------------------|--------------------|--------------------|
C |--7--7--7--7--7--7--|--5--5--5--5--5--5--|--7--7--7--7--7--7--|--3--3--3--3--3--5--|

F |--------------------|--------------------|--------------------|--------------------|
C |--------------------|--------------------|--------------------|--------------------|
G |--------------------|--------------------|--------------------|--------------------|
C |--7--7--7--7--7--7--|--5--5--5--5--5--5--|--2--2--2--2--2--2--|--3--3--3--3--3--3--|

F |--------------------|--------------------|--------------------|--------------------|
C |--------------------|--------------------|--------------------|--------------------|
G |--------------------|--------------------|--------------------|--------------------|
C |--7--7--7--7--7--7--|--5--5--5--5--5--5--|--7--7--7--7--7--7--|--3--3--3--3--3--5--|

F |--------------------|--------------------|------------|
C |--------------------|--------------------|------------|
G |--------------------|--------------------|------------|
C |--7--7--7--7--7--7--|--5--5--5--5--5--5--|--3~~----5--|

                         Chorus
F |--------------------------|--------------------------|--------------------------|--------------------------|
C |--------------------------|--------------------------|--------------------------|--------------------------|
G |--5--5--5--5--5--5--5--5--|--5--5--5--5--3--3--3--3--|--3--3--3--3--3--3--3--3--|--1--1--1--1--1--1--1--1--|
C |--------------------------|--------------------------|--------------------------|--------------------------|

F |--------------------------|-----------------------|
C |--------------------------|-----------------------|
G |--1--1--1--1--0--0--0--0--|--0--0--0--0--3--0--3--|
C |--------------------------|-----------------------|

F |--------------------------|--------------------------|--------------------------|--------------------------|
C |--------------------------|--------------------------|--------------------------|--------------------------|
G |--5--5--5--5--5--5--5--5--|--5--5--5--5--3--3--3--3--|--3--3--3--3--3--3--3--3--|--1--1--1--1--1--1--1--1--|
C |--------------------------|--------------------------|--------------------------|--------------------------|

F |--------------------------|----------------------|
C |--------------------------|----------------------|
G |--1--1--1--1--0--0--0--0--|--0--0--0--0--3----3--|
C |--------------------------|----------------------|

     Post Chorus
F |------------------------|
C |------------------------| X4
G |------------------------|
C |--2----1~~----5~~----6--|

Rest for a moment
*Dany sings*

        Verse II
F |----------------------------------|
C |----------------------------------| X2
G |----------------------------------|
C |--0~~----3~~----8----5~~----12~~--|

                   Pre Chorus
F |--------------------|--------------------|--------------------|--------------------|
C |--------------------|--------------------|--------------------|--------------------|
G |--------------------|--------------------|--------------------|--------------------|
C |--7--7--7--7--7--7--|--5--5--5--5--5--5--|--7--7--7--7--7--7--|--3--3--3--3--3--5--|

F |--------------------|--------------------|--------------------|--------------------|
C |--------------------|--------------------|--------------------|--------------------|
G |--------------------|--------------------|--------------------|--------------------|
C |--7--7--7--7--7--7--|--5--5--5--5--5--5--|--2--2--2--2--2--2--|--3--3--3--3--3--3--|

F |--------------------|--------------------|--------------------|--------------------|
C |--------------------|--------------------|--------------------|--------------------|
G |--------------------|--------------------|--------------------|--------------------|
C |--7--7--7--7--7--7--|--5--5--5--5--5--5--|--7--7--7--7--7--7--|--3--3--3--3--3--5--|

F |--------------------|--------------------|------------|
C |--------------------|--------------------|------------|
G |--------------------|--------------------|------------|
C |--7--7--7--7--7--7--|--5--5--5--5--5--5--|--3~~----5--|

                        Chorus II - X4
F |--------------------------|--------------------------|--------------------------|--------------------------|
C |--------------------------|--------------------------|--------------------------|--------------------------|
G |--5--5--5--5--5--5--5--5--|--5--5--5--5--3--3--3--3--|--3--3--3--3--3--3--3--3--|--1--1--1--1--1--1--1--1--|
C |--------------------------|--------------------------|--------------------------|--------------------------|

F |--------------------------|-----------------------|
C |--------------------------|-----------------------|
G |--1--1--1--1--0--0--0--0--|--0--0--0--0--3--0--3--|
C |--------------------------|-----------------------|

      Outro
F |------------------------|
C |------------------------| X4
G |------------------------|
C |--2----1~~----5~~----6--|

F |---------|
C |---------|
G |---------|
C |--0~~~~--|

Nymphetamine Fix bass tab

Cradle Of Filth bass tabs for Nymphetamine fix Track 14 from Nymphetamine - Nymphetamine Fix Feat. Liv Kristine.

Almost there ...

Sign in to get your own page with links to favourite songs and more. You are just one click away...

Login with Facebook Login with Google