Log in

One click and you are in

Login with Facebook Login with Google

Why sign up and log in

Guitar Tabs Explorer
Cradle Of Filth tabs for Her ghost in the fog

Guitar tabs with lyrics

Her Ghost In The Fog - Cradle Of Filth

	By: Bennett - E-Mail:ericmath@sympatico.ca


RIFF 1(a):

	Make scratch with pick at start on A chord diagramD MajorD and A chord diagramA augmentedA string.
	Strum these fast except for the last four notes.
e -----------------------------------------------------------------------------
b -----------------------------------------------------------------------------
g -----------------------------------------------------------------------------
d -----------------------------------------------------------------------------
a ---0---4--6---3--6---2-2-2-2-------------------------------------------------
A chord diagramD MajorD ---0---4--6---3--6---2-2-2-2-------------------------------------------------
RIFF 1(b):

       PM.....   .......   .......   .....
e
-----------------------------------------|------------------------------------b
-----------------------------------------|------------------------------------g
---2-2-2-2-2-2-2-2-2-2-0-0-0-0-0-0-0-0-0-|------------------------------------d
---0-0-0-0-0-0-0-0-0-0-2-2-2-2-2-2-2-2-2-|-3-5-3h5p3/2-2----3-2-3---2---2-----a
---0-0-0-0-0-0-0-0-0-0-3-3-3-3-3-3-3-3-3-|---------------5--------5---3-----5-D
---0-0-0-0-0-0-0-0-0-0-0-0-0-0-0-0-0-0-0-|--------------------------------7---

RIFF 1(c):

e -----------------------------------------------------------------------------
b -----------------------------------------------------------------------------
g -----------------------------------------------------------------------------
d --3-5-3h5p3/2-3--7---7-5-7-3-5-2-3-------------------------------------------
a -------------------7---------------------------------------------------------
A chord diagramD MajorD -----------------------------------------------------------------------------

RIFF 1(d):

       PM.....   .......   .......
e -----------------------------------------------------------------------------
b -----------------------------------------------------------------------------
g ---2-2-2-2-2-2-2-2-2-2-2-2-2-2-2-8-10-8-7-7/8/7-5-4-4---2-4------------------
d ---0-0-0-0-0-0-0-0-0-0-0-0-0-0-0-6-8--6-5-5/6/5-3-2-2---0-2------------------
a ---0-0-0-0-0-0-0-0-0-0-0-0-0-0-0-6-8--6-5-5/6/5-3-2-2---0-2------------------
A chord diagramD MajorD ---0-0-0-0-0-0-0-0-0-0-0-0-0-0-0-6-8--6-5-5/6/5-3-2-2---0-2------------------


RIFF 2(a):


e -----------------------------------------------------------------------------
b -----------------------------------------------------------------------------
g -----------------------------------------------------------------------------
d -----2-3-2---2-3-2---2-3-2---2-3-2---2-3-2---2-3-2---2-3-2-5-3-2-3-----------
a ---5-------5-------0-------0-------1-------1-------3-------------------------
A chord diagramD MajorD -----------------------------------------------------------------------------


RIFF 2(b):


e -----------------------------------------------------------------------------
b -----------------------------------------------------------------------------
g -----------------------------------------------------------2-----------------
d -----2-3-2---2-3-2---2-3-2---2-3-2---2-3-2---2-3-2---2-3-2---5-3-2-----------
a ---5-------5-------0-------0-------1-------1-------3-------------------------
A chord diagramD MajorD -----------------------------------------------------------------------------


RIFF 2(c):


e -----------------------------------------------------------------------------
b -----------------------------------------------------------------------------
g -----------------------------------------------------------3-2---2-----------
d -----2-3-2---2-3-2---7-8-7---7-8-7---2-3-2---2-3-2---7-8-7-----5-------------
a ---5-------5-------5-------5-------5-------5-------5-------------------------
A chord diagramD MajorD -----------------------------------------------------------------------------


RIFF 3(a):


e -----------------------------------------------------------------------------
b -----------------------------------------------------------------------------
g -----------------------------------------------------------------------------
d -----------------------------------------------------------------------------
a ---6-5-5--5-5--3-5-5--5-5--6-5-5--5-5--7-/8-7-/8-----------------------------
A chord diagramD MajorD ---6-5-5--5-5--3-5-5--5-5--6-5-5--5-5--7-/8-7-/8-----------------------------


RIFF 3(b):


e -----------------------------------------------------------------------------
b -----------------------------------------------------------------------------
g -----------------------------------------------------------------------------
d -----------------------------------------------------------------------------
a ---6-5-5--5-5--3-5-5--5-5--6-5-5--5-5--1-------------------------------------
A chord diagramD MajorD ---6-5-5--5-5--3-5-5--5-5--6-5-5--5-5--1-------------------------------------


RIFF 3(c):


e -----------------------------------------------------------------------------
b -----------------------------------------------------------------------------
g -----------------------------------------------------------------------------
d -----------------------------------------------------------------------------
a ---6-5-5--5-5--3-5-5--5-5--6-5-5--5-5--3-------------------------------------
A chord diagramD MajorD ---6-5-5--5-5--3-5-5--5-5--6-5-5--5-5--0-------------------------------------


LEAD 1(a): Matches with RIFF 1(a).


e -----------------------------------------------------------------------------
b ------6~-5~-------6~-5~------------------------------------------------------
g ---7~-------6~-7~-------7~---------------------------------------------------
d ------------------------------------3-2-4-3----------------------------------
a -----------------------------------------------------7~0~7~~~~---------------
A chord diagramD MajorD -----------------------------------------------------------------------------


RIFF 4(a): Changes Scales, Same as RIFF 1 only not in same scale.


e
-------------------------------------------|----------------------------------b
-------------------------------------------|----------------------------------g
-------------------------------------------|----------------------------------d
---5-5-5-5-5-5-5-5-5-5-3-3-3-3-3-3-3-3-3-3-|-1-3-1h3p1p0---1-0-1---1---1------a
---3-3-3-3-3-3-3-3-3-3-1-1-1-1-1-1-1-1-1-1-|-------------3-------3---1-----3--D
---0-0-0-0-0-0-0-0-0-0-3-3-3-3-3-3-3-3-3-3-|-----------------------------5----

RIFF 4(b): After this you return to the same scale as in RIFF 1(a).

e
------------------------------------------|-----------------------------------b
------------------------------------------|-----------------------------------g
------------------------------------------|-----------------------------------d
------------------------------------------|-1-3-1h3p1p0-1-5-3-5-1-5---3-------a
------------------------------------------|-------------------------5---3-----D
------------------------------------------|-----------------------------------

Ending:

e -----------------------------------------------------------------------------
b -----------------------------------------------------------------------------
g -----------------------------------------------------------------------------
d ---5-3-2/3-3-2--------5~%----------------------------------------------------
a -----------------4----5~%----------------------------------------------------
A chord diagramD MajorD ----------------------5~%----------------------------------------------------
ⓘ Guitar tab for 'Her Ghost In The Fog' by Cradle Of Filth, a symphonic metal band formed in 1991 from Suffolk, England

Almost there ...

Sign in to get your own page with links to favourite songs and more. You are just one click away...

Login with Facebook Login with Google