Log in

One click and you are in

Login with Facebook Login with Google

Why sign up and log in

Guitar Tabs Explorer
Cradle Of Filth bass tabs for Hallowed be thy name

Hallowed Be Thy Name bass tab by Cradle Of Filth

Cradle Of Filth bass tabs for Hallowed be thy name

Bass tabs with lyrics

Intro:

G|---------------------------------------------------------------------------|
D|---------------------------------------------------------------------------|
A|-------------------------(mute)--------------------------------------------|
E|---------------------------------------------------------------------------|

"I'm waiting, in my cold cell...

G|---------------------------------------------------------------------------|
D|---------------------------------------------------------------------------|
A|------------------------(mute)---------------------------------------------|
E|---------------------------------------------------------------------------|


"The sands of time, for me, are running LOOOOOWWWW........ -

G|---------------------------------------------------------------------------|
D|-----7----7----7-7------3----3----3-3------5----5----5-5------7---7---7-7--|
A|-5-555--555--555-5--1-111--111--111-1--3-333--333--333-3--5-555-555-555-5--| x4
E|---------------------------------------------------------------------------|


"When the preist comes to read me the last rites"

G|--------------------------------------------|
D|-7------7--3------3--5-----5----------------|
A|-5------5--1------1--3-----3--5--1--3---5555| x2
E|--------------------------------------------|


"Somebody please tell me that I'm dreaming"

G|------------------------------------------------------------------------|
D|-----7----7----7-7------3----3----3-3------5----5----5-5----------------|
A|-5-555--555--555-5--1-111--111--111-1--3-333--333--333-3--5--1--3---5555| x2
E|------------------------------------------------------------------------|

G|---------------------------------------------------------------------------|
D|-----7----7----7-7------3----3----3-3------5----5----5-5------7---7---7-7--|
A|-5-555--555--555-5--1-111--111--111-1--3-333--333--333-3--5-555-555-555-5--| x2
E|---------------------------------------------------------------------------|

 BRIDGE A   (On the E string there are no 1s and 0s, they are tens: 10)

G|-----------------------------------------------|
D|-----------7---7-----------7---7-----------7---|
A|---------8-------8-------8-------8-------8---8-| x4
E|-10---10-----------10-10-----------10-10-------|


 BRIDE B
 Play this x2, then  Play this 2x, then  Play this 2x, then Play this 2x
G|-------------------|-------------------|-------------------|-----------------|
D|-------------------|-------------------|-------------------|-----------------|
A|-5-555--555--555-5-|-1-111--111--111-1-|-5-555--555--555-5-|-1-111-111-111---|
E|-------------------|-------------------|-------------------|-----------------|
     x2          x2         x2        x2

"As the guards bring me out to the courtyard"

G|---------------------------------------------------------------------------|
D|-----7----7----7-7------3----3----3-3------5----5----5-5------7---7---7-7--|
A|-5-555--555--555-5--1-111--111--111-1--3-333--333--333-3--5-555-555-555-5--| x4
E|---------------------------------------------------------------------------|


 BRIDE A

G|-----------------------------------------------|
D|-----------7---7-----------7---7-----------7---|
A|---------8-------8-------8-------8-------8---8-| x4
E|-10---10-----------10-10-----------10-10-------|


 BRIDGE C

G|---2-----|
D|-0---2-3-| x16
A|---------|
E|---------|


 BRIDGE D

G|---------------------------|
D|---(drums------------------|
A|----and-------------1-3-5--| x4
E|--keyboard)--------->->->--|


 BRIDGE B (modified) / GUITAR SOLO

 Play this x2, then  Play this 2x, then  Play this 2x, then Play this 2x
G|-------------------|-------------------|-------------------|-----------------|
D|-------------------|-------------------|-------------------|-----------------|
A|-5-555--555--555-5-|-3-333--333--333-3-|-5-555--555--555-5-|-3-333-333-333-3-| x3
E|-------------------|-------------------|-------------------|-----------------|
     x2          x2         x2        x2

 BRIDE E

G|------------------------------------|   G|-------------------------|
D|-------------------------3---3------|   D|-------------------------|
A|-5-55-5-55-3--5-55-5-55-3--3---3--3-| x2  A|-5-55-5-55-3--5-55-5-55-3|
E|------------------------------------|   E|-------------------------|


 MAIN RIFF

G|---------------------------------------------------------------------------|
D|-----7----7----7-7------3----3----3-3------5----5----5-5------7---7---7-7--|
A|-5-555--555--555-5--1-111--111--111-1--3-333--333--333-3--5-555-555-555-5--| x2
E|---------------------------------------------------------------------------|

G|------------------------------------------------------------------------|
D|-----7----7----7-7------3----3----3-3------5----5----5-5----------------|
A|-5-555--555--555-5--1-111--111--111-1--3-333--333--333-3--5--1--3---5555| x2
E|------------------------------------------------------------------------|

G|---------------------------------------------------------------------------|
D|-----7----7----7-7------3----3----3-3------5----5----5-5------7---7---7-7--|
A|-5-555--555--555-5--1-111--111--111-1--3-333--333--333-3--5-555-555-555-5--|
E|---------------------------------------------------------------------------|

G|---------------------------------------------------------|
D|-----7----7----7-7------3----3----3-3------5----5----5-5-|
A|-5-555--555--555-5--1-111--111--111-1--3-333--333--333-3-|
E|---------------------------------------------------------|

 OUTRO (start up at regular tempo, then began to speed up and slow down then speed up again when the rest
of the band does)

G|---2-----|
D|-0---2-3-| REPEAR TILL END
A|---------|
ⓘ Bass guitar tab for 'Hallowed Be Thy Name' by Cradle Of Filth, a symphonic metal band formed in 1991 from Suffolk, England

Almost there ...

Sign in to get your own page with links to favourite songs and more. You are just one click away...

Login with Facebook Login with Google