Log in

One click and you are in

Login with Facebook Login with Google

Why sign up and log in

Guitar Tabs Explorer
Cradle Of Filth tabs for Dusk and her embrace

Guitar tabs with lyrics

Track: Dusk And Her Embrace
Transcribed: Nocturnal Heartbeat
hammetcr@hotmail.com
1. Note that there may be mistakes, and I may play some parts differently
   from others. All corrections and suggestions are welcome.

2. As always with Cradle of Filth songs, there are keyboard intros
   and interludes. I have tried my best to capture the original
   sound with the guitar.

3. All the symbols used in this tablature:

~: Vibrato
h: Hammer on
p: Pulling off
s: Slide
t: Trill
m: Palm mute
ph: picking harmonics

4. For those parts played more than once, please listen to the song itself.
   It should be simple to figure out how many times you need to play the
   part. And it goes the same for the case when the guitar plays thrills.

Tune down 1 step, so the sixth string becomes D.

 Figure A: Intro riff:
 -------------------------------------------------------------------------
 -------------------------------------------------------------------------
 -------------------------------------------------------------------------
 --2m----------2--2m----------2--5m----------5--4m----------4-------------
 --0m0m0m0m0m--0--0m0m0m0m0m--0--3m3m3m3m3m--3--2m2m2m2m2m--2-------------
 -------------------------------------------------------------------------

 Figure B: Played alongside Figure A:
 -------------------------------------------------------------------------
 ------------------------8------------------------8-----------------------
 --9--7---------9--7--9-----9--7---------9--7--9--------------------------
 --------10--9--------------------10--9-----------------------------------
 -------------------------------------------------------------------------
 -------------------------------------------------------------------------

 -------------------------------------------------------------------------
 ------------------------8--10--12--13--12--------------------------------
 --9--7---------9--7--9---------------------------------------------------
 --------10--9------------------------------------------------------------
 -------------------------------------------------------------------------
 -------------------------------------------------------------------------

 Figure C:
 -------------------------------------------------------------------------
 ------------------------8------------------------------------------------
 --9------------9--7--9-----9------------9--7--9--7-----------------------
 -----10--9--7-----------------10--9--7-----------------------------------
 -------------------------------------------------------------------------
 -------------------------------------------------------------------------

 Figure D: Listen carefully and play along to the song. It's quite easy to
 figure out the rhythm here. Palm mute all the way down.
 -------------------------------------------------------------------------
 -------------------------------------------------------------------------
 -------------------------------------------------------------------------
 -(2)---(2)---(2)---(2)----(5)---(5)----(4)---(4)-------------------------
 --0-000-0-000-0-000-0-000--3-333-3-333--2-222-2-222----------------------
 -------------------------------------------------------------------------

 Figure E: Played alongside Figure D.
 -------------------------------------------------------------------------
 -------------------------------------------------------------------------
 -------------------------------------------------------------------------
 --7--8--7--8--7--8--9--9--8--9--8--9--8----------------------------------
 -------------------------------------------------------------------------
 -------------------------------------------------------------------------

 -------------------------------------------------------------------------
 -------------------------------------------------------------------------
 -------------------------------------------------------------------------
 --7--8--7--8--7--8--9--9--8--9--11--11--9--8-----------------------------
 -------------------------------------------------------------------------
 -------------------------------------------------------------------------

 Figure F: Keyboard section Part I.
 -------------------------------------------------------------------------
 -------------------------------------------------------------------------
 -------------------------------------------------------------------------
 --3--2--0--2--3-----------0----------------------------------------------
 -----------------3--2--3-----0-------------------------------------------
 -------------------------------------------------------------------------

 Figure G: Played alongside Figure F.
 -------------------------------------------------------------------------
 -------------------------------------------------------------------------
 -------------------------------------------------------------------------
 -------------------------------------------------------------------------
 --7s8--7--5--7--8--3--2--3--5--0-----------------------------------------
 -------------------------------------------------------------------------

 Figure H:
 -------------------------------------------------------------------------
 -------------------------------------------------------------------------
 -------------------------------------------------------------------------
 --10s9-------10s9----------------------------12--------------------------
 --8s-7-7777--8s-7-7777--8s7-7--8s7-7--8s7-7--10--------------------------
 -------------------------------------------------------------------------

 -------------------------------------------------------------------------
 -------------------------------------------------------------------------
 -------------------------------------------------------------------------
 --5s4-------5s4----------------2-----------------------------------------
 --3s2-2222--3s2-2222--333-222--0-----------------------------------------
 -------------------------------------------------------------------------

 -------------------------------/--------------/--------------------------
 -------------------------------/--------------/--------------------------
 -------------------------------/--------------/--------------------------
 --3t--2t--0t--0--2--3----------/--------------/--5--4--2--4--5--7--------
 -----------------------3t--2t--/--3t--5t--0t--/--3--2--0--2--3--5--------
 -------------------------------/--------------/--------------------------

 Figure I:
 -------------------------------------------------------------------------
 -------------------------------------------------------------------------
 --4t--3t-----------------------------------------------------------------
 --2t--1t--5t--4t--5--4--2--4--5--7---------------------------------------
 ----------3t--2t--3--2--0--2--3--5---------------------------------------
 -------------------------------------------------------------------------

 Figure J: Unsure about this riff, but this sounds pretty close.
 -------------------------------------------------------------------------
 -------------------------------------------------------------------------
 -------------------------------------------------------------------------
 --2p0-2p0--3p2-3p2--5p0--3p0--2p0--0-------------------------------------
 -------------------------------------------------------------------------
 -------------------------------------------------------------------------

 -------------------------------------------------------------------------
 -------------------------------------------------------------------------
 -------------------------------------------------------------------------
 --3p2-3p2--5p3-5p3--7p0--5p0--3p0--2p0-----------------------------------
 -------------------------------------------------------------------------
 -------------------------------------------------------------------------

 Figure K: Palm mute all the way.
 -------------------------------------------------------------------------
 -------------------------------------------------------------------------
 -------------------------------------------------------------------------
 --11--10--9--8--11--10--9--8--11--10--11--13--14--13--11--10-------------
 --9---8---7--6--9---8---7--6--9---8---9---11--12--11--9---8--------------
 -------------------------------------------------------------------------

 Figure L: Palm mute all the way.
 -------------------------------------------------------------------------
 -------------------------------------------------------------------------
 -------------------------------------------------------------------------
 -------------------------------------------------------------------------
 --10--9--8--7--10--9--8--7--10--9--10--12--13--12--10--9-----------------
 --8---7--6--5--8---7--6--5--8---7--8---10--11--10--8---7-----------------

 Figure M:
 -------------------------------------------------------------------------
 -------------------------------------------------------------------------
 -------------------------------------------------------------------------
 ------------------------------5t--3t--2t--3t-----------------------------
 --3h5-5t--6p5-5t--3--5--6--5---------------------------------------------
 -------------------------------------------------------------------------

 Figure N: Play this part with a bit of picking harmonics.
 -------------------------------------------------------------------------
 -------------------------------------------------------------------------
 -------------------------------------------------------------------------
 --------333--222--000--------000--222------------------------------------
 --0000-----------------3333------------333-------------------------------
 -------------------------------------------------------------------------

 Figure O: Keyboard section Part II.
 -------------------------------------------------------------------------
 -------------------------------------------------------------------------
 -------------------------------------------------------------------------
 --------0----------------------------------------------------------------
 --0--1-----3-------------------------------------------------------------
 --------------3----------------------------------------------------------

 Figure P:           / Figure P':
 --------------------/----------------------------------------------------
 ------00--11--33----/----------------------------------------------------
 --00----------------/----------------------------------------------------
 --------------------/-----4----------------------------------------------
 --------------------/--2--2--5--4--5--4----------------------------------
 --------------------/--0-----3--2--3--2----------------------------------

 Figure Q:
 -------------------------------------------------------------------------
 -------------------------------------------------------------------------
 -------------------------------------------------------------------------
 --4t--5t--7t-------------------------------------------------------------
 --2t--3t--5t--2t---------------------------------------------------------
 --------------0t---------------------------------------------------------

 Figure R: Keyboard section Part III.
 -------------------------------------------------------------------------
 -------------------------------------------------------------------------
 -------------------------------------------------------------------------
 --9--10--9--7--9-----------------9--12--10--9----------------------------
 -----------------------------------------------5-------------------------
 ------------------0--3--2--0--3-------------------0--3--2--0--3----------

 Figure S:
 -------------------------------------------------------------------------
 -------------------------------------------------------------------------
 -------------------------------------------------------------------------
 --4t--5t--4t--------------4t--5t--4t-------------------------------------
 --2t--3t--2t--2t--3t--2t--2t--3t--2t--2t--3t--2t--2----------------------
 --------------0t----------------------0t----------0----------------------

ⓘ Guitar tab for 'Dusk And Her Embrace' by Cradle Of Filth, a symphonic metal band formed in 1991 from Suffolk, England

Almost there ...

Sign in to get your own page with links to favourite songs and more. You are just one click away...

Login with Facebook Login with Google