Log in

One click and you are in

Login with Facebook Login with Google

Why sign up and log in

Guitar Tabs Explorer
Cradle Of Filth bass tabs for Devil woman

Bass tabs

Tuning: D


🏷Legend:
r = rest
\ = slide down

INTRO (Repeat 1st staff x2):

F |-----------------|-----------------|-----------------|-----------------|
C |-----------------|-----------------|-----------------|-----------------|
G |-----------------|-----------------|---5---------5---|-----------------|
D |-0-0-0-2-3-2-0-5-|-5-5-5-7-8-7-5-3-|-3---3-2-3-5---0-|-0-0-0-0-0-0-0-0-|
  1 & 2 & 3 & 4 &  1 & 2 & 3 & 4 &  1 & 2 & 3 & 4 &  1 & 2 & 3 & 4 &

F |-----------------|-----------------|-----------------|
C |-----------------|-----------------|-----------------|
G |---5---------5---|-----------------|-----------------|
D |-3---3-2-3-5---0-|-0-0-0-0-0-0-0-0-|-0-0-0-0-0-r-----|
  1 & 2 & 3 & 4 &  1 & 2 & 3 & 4 &  1 & 2 & 3 & 4 &


VERSE 1 (x2):                      _________________ __________________
                            /1        /2
F |-----------------|-----------------|-----------------|-----------------|------------------|
C |-----------------|-----------------|-----------------|-----------------|------------------|
G |-----------------|-----------------|-------------5---|-----------------|----------------0-|
D |-0-0-0-0-0-0-0-5-|-5-5-5-5-5-5-5-3-|-3-3-3-2-3-5---0-|-0-0-0-0-0-0-0-0-|-0-0-0-0-0-0-12\--|
  1 & 2 & 3 & 4 &  1 & 2 & 3 & 4 &  1 & 2 & 3 & 4 &  1 & 2 & 3 & 4 &  1 & 2 & 3 & 4 &


PRE-CHORUS:

F |-----------------|-----------------|-----------------|-----------------|
C |-----------------|-----------------|-----------------|-----------------|
G |-5-5-5-5-5-5-5-5-|-----------------|-5-5-5-5-5-5-5-5-|-----------------|
D |-----------------|-0-0-0-0-0-0-0-0-|-----------------|-0-0-0-0-0-0-0-0-|
  1 & 2 & 3 & 4 &  1 & 2 & 3 & 4 &  1 & 2 & 3 & 4 &  1 & 2 & 3 & 4 &

F |-----------------|-----------------|-----------------|-----------------|
C |-----------------|-----------------|-----------------|-----------------|
G |-5-5-5-5-5-5-5-5-|-7-7-7-7-7-7-7-7\|-3-3-3-3-3-3-3-3-|-2-2-2-2-2-r-----|
D |-----------------|-----------------|-----------------|-----------------|
  1 & 2 & 3 & 4 &  1 & 2 & 3 & 4 &  1 & 2 & 3 & 4 &  1 & 2 & 3 & 4 &


CHORUS 1 (x2):

F |-----------------|-----------------|-----------------|-----------------|
C |-----------------|-----------------|-----------------|-----------------|
G |-----------------|-----------------|-----------------|-3-3-3-3-3-2-3-2-|
D |-0-0-0-0-0-0-1-0-|-0-0-0-0-0-0-3-0-|-0-0-0-0-0-0-1-0-|-----------------|
  1 & 2 & 3 & 4 &  1 & 2 & 3 & 4 &  1 & 2 & 3 & 4 &  1 & 2 & 3 & 4 &


PRE-VERSE:

F |-----------------|-----------------|-----------------|-----------------|
C |-----------------|-----------------|-----------------|-----------------|
G |-----------------|-----------------|---5---------5---|-----------------|
D |-0-0-0-2-3-2-0-5-|-5-5-5-7-8-7-5-3-|-3---3-2-3-5---0-|-0-0-0-0-0-0-0-0-|
  1 & 2 & 3 & 4 &  1 & 2 & 3 & 4 &  1 & 2 & 3 & 4 &  1 & 2 & 3 & 4 &

F |-----------------|-----------------|-----------------|
C |-----------------|-----------------|-----------------|
G |---5---------5---|-----------------|-----------------|
D |-3---3-2-3-5---0-|-0-0-0-0-0-0-0-0-|-0-0-0-0-0-r-----|
  1 & 2 & 3 & 4 &  1 & 2 & 3 & 4 &  1 & 2 & 3 & 4 &


VERSE 2 (x2):                      _________________ __________________
                            /1        /2
F |-----------------|-----------------|-----------------|-----------------|------------------|
C |-----------------|-----------------|-----------------|-----------------|------------------|
G |-----------------|-----------------|-------------5---|-----------------|----------------0-|
D |-0-0-0-0-0-0-0-5-|-5-5-5-5-5-5-5-3-|-3-3-3-2-3-5---0-|-0-0-0-0-0-0-0-0-|-0-0-0-0-0-0-12\--|
  1 & 2 & 3 & 4 &  1 & 2 & 3 & 4 &  1 & 2 & 3 & 4 &  1 & 2 & 3 & 4 &  1 & 2 & 3 & 4 &


PRE-CHORUS:

F |-----------------|-----------------|-----------------|-----------------|
C |-----------------|-----------------|-----------------|-----------------|
G |-5-5-5-5-5-5-5-5-|-----------------|-5-5-5-5-5-5-5-5-|-----------------|
D |-----------------|-0-0-0-0-0-0-0-0-|-----------------|-0-0-0-0-0-0-0-0-|
  1 & 2 & 3 & 4 &  1 & 2 & 3 & 4 &  1 & 2 & 3 & 4 &  1 & 2 & 3 & 4 &

F |-----------------|-----------------|-----------------|-----------------|
C |-----------------|-----------------|-----------------|-----------------|
G |-5-5-5-5-5-5-5-5-|-7-7-7-7-7-7-7-7\|-3-3-3-3-3-3-3-3-|-2-2-2-2-2-r-----|
D |-----------------|-----------------|-----------------|-----------------|
  1 & 2 & 3 & 4 &  1 & 2 & 3 & 4 &  1 & 2 & 3 & 4 &  1 & 2 & 3 & 4 &


CHORUS 2 (x2):

F |-----------------|-----------------|-----------------|-----------------|
C |-----------------|-----------------|-----------------|-----------------|
G |-----------------|-----------------|-----------------|-3-3-3-3-3-2-3-2-|
D |-0-0-0-0-0-0-1-0-|-0-0-0-0-0-0-3-0-|-0-0-0-0-0-0-1-0-|-----------------|
  1 & 2 & 3 & 4 &  1 & 2 & 3 & 4 &  1 & 2 & 3 & 4 &  1 & 2 & 3 & 4 &


BRIDGE:

F |-----------------|-----------------|-----------------|-----------------|
C |-----------------|-----------------|-----------------|-----------------|
G |-3-3-3-3-3-3-3-2-|-5-5-5-5-5-5-5-5-|-3-3-3-3-3-3-3-3-|-2-2-2-2-2-2-2-2-|
D |-----------------|-----------------|-----------------|-----------------|
  1 & 2 & 3 & 4 &  1 & 2 & 3 & 4 &  1 & 2 & 3 & 4 &  1 & 2 & 3 & 4 &

F |-----------------|-----------------|-----------------|-----------------|
C |-----------------|-----------------|-----------------|-----------------|
G |-----------------|-----------------|-------------5---|-----------------|
D |-0-0-0-0-0-0-0-5-|-5-5-5-5-5-5-5-3-|-3-3-3-2-3-5---0-|-0-0-0-0-0-0-0-0-|
  1 & 2 & 3 & 4 &  1 & 2 & 3 & 4 &  1 & 2 & 3 & 4 &  1 & 2 & 3 & 4 &


VERSE 3 (x2):                      _________________ __________________
                            /1        /2
F |-----------------|-----------------|-----------------|-----------------|------------------|
C |-----------------|-----------------|-----------------|-----------------|------------------|
G |-----------------|-----------------|-------------5---|-----------------|----------------0-|
D |-0-0-0-0-0-0-0-5-|-5-5-5-5-5-5-5-3-|-3-3-3-2-3-5---0-|-0-0-0-0-0-0-0-0-|-0-0-0-0-0-0-12\--|
  1 & 2 & 3 & 4 &  1 & 2 & 3 & 4 &  1 & 2 & 3 & 4 &  1 & 2 & 3 & 4 &  1 & 2 & 3 & 4 &


PRE-CHORUS:

F |-----------------|-----------------|-----------------|-----------------|
C |-----------------|-----------------|-----------------|-----------------|
G |-5-5-5-5-5-5-5-5-|-----------------|-5-5-5-5-5-5-5-5-|-----------------|
D |-----------------|-0-0-0-0-0-0-0-0-|-----------------|-0-0-0-0-0-0-0-0-|
  1 & 2 & 3 & 4 &  1 & 2 & 3 & 4 &  1 & 2 & 3 & 4 &  1 & 2 & 3 & 4 &

F |-----------------|-----------------|-----------------|-----------------|
C |-----------------|-----------------|-----------------|-----------------|
G |-5-5-5-5-5-5-5-5-|-7-7-7-7-7-7-7-7\|-3-3-3-3-3-3-3-3-|-2-2-2-2-2-2-2-2-|
D |-----------------|-----------------|-----------------|-----------------|
  1 & 2 & 3 & 4 &  1 & 2 & 3 & 4 &  1 & 2 & 3 & 4 &  1 & 2 & 3 & 4 &


OUT-CHORUS (x4):

F |-----------------|-----------------|-----------------|-----------------|
C |-----------------|-----------------|-----------------|-----------------|
G |-----------------|-----------------|-----------------|-3-3-3-3-3-2-3-2-|
D |-0-0-0-0-0-0-1-0-|-0-0-0-0-0-0-3-0-|-0-0-0-0-0-0-1-0-|-----------------|
  1 & 2 & 3 & 4 &  1 & 2 & 3 & 4 &  1 & 2 & 3 & 4 &  1 & 2 & 3 & 4 &
ⓘ Bass guitar tab for 'Devil Woman' by Cradle Of Filth, a symphonic metal band formed in 1991 from Suffolk, England

Almost there ...

Sign in to get your own page with links to favourite songs and more. You are just one click away...

Login with Facebook Login with Google