Log in

One click and you are in

Login with Facebook Login with Google

Why sign up and log in

Guitar Tabs Explorer
Cradle Of Filth tabs for Castlevania

Guitar tabs

Castlevania - Cradle of Filth

Tuning - A chord diagramD MajorD A chord diagramA augmentedA A chord diagramD MajorD A chord diagramG+G A chord diagramBB A chord diagramE MajorE (low to high)

h = hammer   ~ = hold
p = pull     b = bend
m = mute
Intro
|-------------------------------------------------------------------------------|
|-------------------------------------------------------------------------------|
|-------------------------------------------------------------------------------|
|-12----------------5--10-3-8-13-7-12--------5-7------------7-12----------------|
|-12----------------5--10-3-8-13-7-12--------5-7------------7-12----------------|
|-12----------------5--10-3-8-13-7-12--------5-7------------7-12----------------|

	1st ending
|--------------------------------------------------||-------------------|
|--------------------------------------------------||-------------------|
|------------------------------5-7-----------------||-------------------|
|-5h7-7-7-7-7--5h7-7-7--5--7-8------5h7-7-7-7-7-7--||-8--5-7---8--5-7---|
|-5h7-7-7-7-7--5h7-7-7--------------5h7-7-7-7-7-7--||-8--5-7---8--5-7---|
|-5h7-7-7-7-7--5h7-7-7--------------5h7-7-7-7-7-7--||-8--5-7---8--5-7---|
	2nd ending
                                                    |-----------|
                                                    |-----------|
                                                    |-----------|
                                                    |-8753-5320-|
                                                    |-----------|
                                                    |-----------|

Solo 1
Guitar 1
|--------------------------------------------------------------------16-------
|--8-1310---8h10p8--8-13-10---8h10p8-6---6-8-6-5---5-6-8-11-10---1316--181613-
|-----------------------------------------------------------------------------
|-----------------------------------------------------------------------------
|-----------------------------------------------------------------------------
|-----------------------------------------------------------------------------
Guitar 2
|-----------------------------------------------------------------------------
|-----------------------------------------------------------------------------
|-----------------------------------------------------------------------------
|-12~--------------10~---------------8~-------------7~-------12~----------10~-
|-12~--------------10~---------------8~-------------7~-------12~----------10~-
|-12~--------------10~---------------8~-------------7~-------12~----------10~-

Gtr 1
-17----18----17----171817151715131213-|
--------------------------------------|
--------------------------------------|
--------------------------------------|
--------------------------------------|
--------------------------------------|
Gtr 2
--------------------------------------|
--------------------------------------|
--------------------------------------|
-8~----------10~----------------------|
-8~----------10~----------------------|
-8~----------10~----------------------|

Bridge
|-----------------------------------------------------------------------|
|-----------------------------------------------------------------------|
|-----------------------------------------------------------------------|
|-12-12----10-10----8-8----X-X----12-12----10-10----8-8----10-10----12~-|
|-12-12----10-10----8-8----X-X----12-12----10-10----8-8----10-10----12~-|
|-12-12----10-10----8-8----X-X----12-12----10-10----8-8----10-10----12~-|

Solo 2
Guitar 1
|---------------12-13-12-10-------------------------------------------------
|------------10-------------13-10----8p6-8----------------------------------
|------------------------------------------7--5-----------------------------
|-5-107-----------------------------------------7-5-------------------------
|---------------------------------------------------8--7----7-9-10-13-12----
|---------------------------------------------------------------------------
Guitar 2
|---------------------------------------------------------------------------
|---------------------------------------------------------------------------
|---------------------------------------------------------------------------
|-12-12~-----10-10~------------------8-8~--------------7-7~-----------12-12~
|-12-12~-----10-10~------------------8-8~--------------7-7~-----------12-12~
|-12-12~-----10-10~------------------8-8~--------------7-7~-----------12-12~

Gtr 1
-------15--1517------17p15-13-10----12131516151312---------------|
-181718--18---------------------------------------10-12-14-17-15-|
-----------------------------------------------------------------|
-----------------------------------------------------------------|
-----------------------------------------------------------------|
-----------------------------------------------------------------|
Gtr 2
-----------------------------------------------------------------|
-----------------------------------------------------------------|
-----------------------------------------------------------------|
-10-10~-------------8-8~-----------10-10~------------------------|
-10-10~-------------8-8~-----------10-10~------------------------|
-10-10~-------------8-8~-----------10-10~------------------------|


Bridge

Keyboard solo
|---|
|---|
|---| Many times
|-7-|
|-7-|
|-7-|
  m
then
|-------------------------------------------|    |---|
|-------------------------------------------|    |---|
|-------------------------------------------|    |---| Many times
|-5555-10101010-3333-8888-13131313-7777-12~-| x3 |-7-|
|-5555-10101010-3333-8888-13131313-7777-12~-|    |-7-|
|-5555-10101010-3333-8888-13131313-7777-12~-|    |-7-|
	m

Solo 3
Guitar 1
|--------------------------------------------------------------------12-10~~-
|---------------------10---8---12---12h13p12-101210 10-----------------------
|--------------------------------------------------12 9~~--9-11-12-7---------
|----------------------------------------------------------------------------
|-------------7-5------------------------------------------------------------
|-2~~~2-4-5-0----------------------------------------------------------------
Guitar 2
|----------------------------------------------------------------------------
|----------------------------------------------------------------------------
|----------------------------------------------------------------------------
|-12-12~~~-10-10~~~--8-8~~~----7-7~~~-----------------12-12~~~-----10-10~~~--
|-12-12~~~-10-10~~~--8-8~~~----7-7~~~-----------------12-12~~~-----10-10~~~--
|-12-12~~~-10-10~~~--8-8~~~----7-7~~~-----------------12-12~~~-----10-10~~~--


Gtr 1
-15----15----17-17-17-17-1712~~~~~~~~~---------------------------------------------
-----------------------------------------------------------------------------------
-----------------------------------------------------------------------------------
-----------------------------------------------------------------------------------
-----------------------------------------------------------------------------------
-----------------------------------------------------------------------------------
Gtr 2
-----------------------------------------------------------------------------------
-----------------------------------------------------------------------------------
-----------------------------------------------------------------------------------
-8-8~~~------10-10~~~------12-12~~~10-10~~~8-8~~~7-7~~~12-12~~~10-10~~~8-8~~~7-7~~~
-8-8~~~------10-10~~~------12-12~~~10-10~~~8-8~~~7-7~~~12-12~~~10-10~~~8-8~~~7-7~~~
-8-8~~~------10-10~~~------12-12~~~10-10~~~8-8~~~7-7~~~12-12~~~10-10~~~8-8~~~7-7~~~

Gtr 1
-----------------------------12--------------14-15-17-21-19-|
-12~~~~---------12 --1310---8------------------------------|
-----------------------------------------------------------|
-----------------------------------------------------------|
-----------------------------------------------------------|
-----------------------------------------------------------|
Gtr 2
-----------------------------------------------------------|
-----------------------------------------------------------|
-----------------------------------------------------------|
-12-12~~~10-10~~~8-8~~~7-7~~~12-12~~~10-10~~~8-8~~~7-7~~~--|
-12-12~~~10-10~~~8-8~~~7-7~~~12-12~~~10-10~~~8-8~~~7-7~~~--|
-12-12~~~10-10~~~8-8~~~7-7~~~12-12~~~10-10~~~8-8~~~7-7~~~--|


Outro
|------------------|
|------------------|
|------------------| x4
|-7-9-10-7-710-109-|
|-7-9-10-7-710-109-|
|-7-9-10-7-710-109-|

|-----------------|
|-----------------|
|-----------------|
|-14b~~~~~~-14~~~-|
|-----------14~~~-|
|-----------14~~~-|
ⓘ Guitar tab for 'Castlevania' by Cradle Of Filth, a symphonic metal band formed in 1991 from Suffolk, England

Almost there ...

Sign in to get your own page with links to favourite songs and more. You are just one click away...

Login with Facebook Login with Google