Log in

One click and you are in

Login with Facebook Login with Google

Why sign up and log in

Guitar Tabs Explorer
The Courteeners bass tabs for More again forever

More Again Forever bass tab by The Courteeners

The Courteeners bass tabs for More again forever

Bass tabs

Tuning: Standard (E A D G)


Note: The strumming pattern (marked by ^ and v) is only applicable for those who opt to use a pick.
   Play the whole staff for each line of the verse. If there are 5, 3 or 4 lines of lyrics, it
      corresponds as to how may times a staff is played.

Key - F#m

Intro:
  (1:14)
G|---------------------|---------------------|---------------------|---7---6-------------|
D|---------------------|---------------------|---------------------|------------7----9---|
A|-------7--9\0--------|-------7--9\0--------|-------7--9\0--------|---------------------|
E|---0-----------------|---0-----------------|---0-----------------|---------------------| 4x


Verse 1:
G|---------------------|---------------------|---------------------|---7---6-------------|
D|---------------------|---------------------|---------------------|------------7----9---|
A|-------7--9\0--------|-------7--9\0--------|-------7--9\0--------|---------------------|
E|---0-----------------|---0-----------------|---0-----------------|---------------------| 5x
   All of the speakers....                   ... never-ending conversation
   Your feet are moving...                   ... Friday is the best, you let me
   taste your accent...                    ... If they so care
   Someone used to love me...                 ... none of them get a round in
   You can't see the exit...                  ... he says he doesn't know your name

G|---------------------|---------------------|---------------------|---7.--6.------------|
D|---------------------|---------------------|---------------------|------------7.---9.--|
A|-------7--9\0--------|-------7--9\0--------|-------7--9\0--------|---------------------|
E|---0-----------------|---0-----------------|---0-----------------|---------------------|
   He's playing his own game...                        Smug twat.

Interlude:
G|---------------------|---------------------|---------------------|-7-7-7-7-6-6-6-6-----------------|
D|---------------------|---------------------|---------------------|-----------------7-7-7-7-9-9-9-9-|
A|---7--9---9.-9.--9-9-|---7--9---9.-9.--9-9-|---7--9---9.-9.--9-9-|---------------------------------|
E|-0-------------------|-0-------------------|-0-------------------|---------------------------------| 2x
  ^ ^ ^  v v  v ^  ^ ^ ^  v v  v ^  ^ ^ ^  v v  v ^  ^ v ^ v ^ v ^ v ^ v ^ v ^ v ^ v


Verse 2:
G|---------------------|---------------------|---------------------|---7---6-------------|
D|---------------------|---------------------|---------------------|------------7----9---|
A|-------7--9\0--------|-------7--9\0--------|-------7--9\0--------|---------------------|
E|---0-----------------|---0-----------------|---0-----------------|---------------------| 3x
   Tomorrow seems...                       ... all the things I've said
   Swaying in the kitchen...                   ... bright young you
   You settle, throw your mind back...                ...Handshake and a paper bag

G|---------------------|---------------------|---------------------|---7.--6.------------|
D|---------------------|---------------------|---------------------|------------7.---9.--|
A|-------7--9\0--------|-------7--9\0--------|-------7--9\0--------|---------------------|
E|---0-----------------|---0-----------------|---0-----------------|---------------------|
   Running on empty...                      ... around and around


Chorus:
  Esus           E           F#m        Dsus2
G|---------------------|---------------------|---------------------|-7-7-7-7-6-6-6-6-----------------|
D|---------------------|---------------------|---------------------|-----------------7-7-7-7-9-9-9-9-|
A|---7--9---9.-9.--9-9-|---7--9---9.-9.--9-9-|---7--9---9.-9.--9-9-|---------------------------------|
E|-0-------------------|-0-------------------|-0-------------------|---------------------------------|
  ^ ^ ^  v v  v ^  ^ ^ ^  v v  v ^  ^ ^ ^  v v  v ^  ^ v ^ v ^ v ^ v ^ v ^ v ^ v ^ v
  More.          Again.       Forever....              We want

  Esus           E           F#m        Dsus2
G|---------------------|---------------------|---------------------|-7-7-7-7-6-6-6-6-----------------|
D|---------------------|---------------------|---------------------|-----------------7-7-7-7-9-9-9-9-|
A|---7--9---9.-9.--9-9-|---7--9---9.-9.--9-9-|---7--9---9.-9.--9-9-|---------------------------------|
E|-0-------------------|-0-------------------|-0-------------------|---------------------------------|
  More.          Again.       Forever....


Verse 2:
G|---------------------|---------------------|---------------------|---7---6-------------|
D|---------------------|---------------------|---------------------|------------7----9---|
A|-------7--9\0--------|-------7--9\0--------|-------7--9\0--------|---------------------|
E|---0-----------------|---0-----------------|---0-----------------|---------------------| 4x
   A cinematic sunrise....                   ... no one talks anymore
   Read, unread....                       ... But probably getting paid
   Destroying everything...                   ... especially each other
   Your shoe's uncomfortable...                 ... see how far we get

G|---------------------|---------------------|---------------------|---7.--6.------------|
D|---------------------|---------------------|---------------------|------------7.---9.--|
A|-------7--9\0--------|-------7--9\0--------|-------7--9\0--------|---------------------|
E|---0-----------------|---0-----------------|---0-----------------|---------------------|
   Before the blisters set in...                ... sister steps in



Chorus:
G|---------------------|---------------------|---------------------|-7-7-7-7-6-6-6-6-----------------|
D|---------------------|---------------------|---------------------|-----------------7-7-7-7-9-9-9-9-|
A|---7--9---9.-9.--9-9-|---7--9---9.-9.--9-9-|---7--9---9.-9.--9-9-|---------------------------------|
E|-0-------------------|-0-------------------|-0-------------------|---------------------------------|
  ^ ^ ^  v v  v ^  ^ ^ ^  v v  v ^  ^ ^ ^  v v  v ^  ^ v ^ v ^ v ^ v ^ v ^ v ^ v ^ v
  More.          Again.       Forever....              We want
G|---------------------|---------------------|---------------------|-7-7-7-7-6-6-6-6-----------------|
D|---------------------|---------------------|---------------------|-----------------7-7-7-7-9-9-9-9-|
A|---7--9---9.-9.--9-9-|---7--9---9.-9.--9-9-|---7--9---9.-9.--9-9-|---------------------------------|
E|-0-------------------|-0-------------------|-0-------------------|---------------------------------|
  More.          Again.       Forever....
G|---------------------|---------------------|---------------------|-7-7-7-7-6-6-6-6-----------------|
D|---------------------|---------------------|---------------------|-----------------7-7-7-7-9-9-9-9-|
A|---7--9---9.-9.--9-9-|---7--9---9.-9.--9-9-|---7--9---9.-9.--9-9-|---------------------------------|
E|-0-------------------|-0-------------------|-0-------------------|---------------------------------|
  ^ ^ ^  v v  v ^  ^ ^ ^  v v  v ^  ^ ^ ^  v v  v ^  ^ v ^ v ^ v ^ v ^ v ^ v ^ v ^ v
  More.          Again.       Forever....              We want
G|---------------------|---------------------|---------------------|-7-7-7-7-6-6-6-6-----------------|
D|---------------------|---------------------|---------------------|-----------------7-7-7-7-9-9-9-9-|
A|---7--9---9.-9.--9-9-|---7--9---9.-9.--9-9-|---7--9---9.-9.--9-9-|---------------------------------|
E|-0-------------------|-0-------------------|-0-------------------|---------------------------------|
  More.          Again.       Forever....


Interlude:
G|---------------------|---------------------|---------------------|---7---6-------------|
D|---------------------|---------------------|---------------------|------------7----9---|
A|------7--9.----r-----|------7--9.----r-----|------7--9.----r-----|---------------------|
E|--0------------------|--0------------------|--0------------------|---------------------| 3x

G|---------------------|---------------------|---------------------|---7.--6.------------|
D|---------------------|---------------------|---------------------|------------7.---9.--|
A|------7--9.----r-----|------7--9.----r-----|------7--9.----r-----|---------------------|
E|--0------------------|--0------------------|--0------------------|---------------------|

G|---------------------|---------------------|---------------------|-7-7-7-7-6-6-6-6-----------------|
D|---------------------|---------------------|---------------------|-----------------7-7-7-7-9-9-9-9-|
A|---7--9---9.-9.--9-9-|---7--9---9.-9.--9-9-|---7--9---9.-9.--9-9-|---------------------------------|
E|-0-------------------|-0-------------------|-0-------------------|---------------------------------| 2x
  ^ ^ ^  v v  v ^  ^ ^ ^  v v  v ^  ^ ^ ^  v v  v ^  ^ v ^ v ^ v ^ v ^ v ^ v ^ v ^ v


Chorus:
G|---------------------|---------------------|---------------------|-7-7-7-7-6-6-6-6-----------------|
D|---------------------|---------------------|---------------------|-----------------7-7-7-7-9-9-9-9-|
A|---7--9---9.-9.--9-9-|---7--9---9.-9.--9-9-|---7--9---9.-9.--9-9-|---------------------------------|
E|-0-------------------|-0-------------------|-0-------------------|---------------------------------|
  ^ ^ ^  v v  v ^  ^ ^ ^  v v  v ^  ^ ^ ^  v v  v ^  ^ v ^ v ^ v ^ v ^ v ^ v ^ v ^ v
  More.          Again.       Forever....              We want
G|---------------------|---------------------|---------------------|-7-7-7-7-6-6-6-6-----------------|
D|---------------------|---------------------|---------------------|-----------------7-7-7-7-9-9-9-9-|
A|---7--9---9.-9.--9-9-|---7--9---9.-9.--9-9-|---7--9---9.-9.--9-9-|---------------------------------|
E|-0-------------------|-0-------------------|-0-------------------|---------------------------------|
  More.          Again.       Forever....


Interlude:
G|---------------------|---------------------|---------------------|-7-7-7-7-6-6-6-6-----------------|
D|---------------------|---------------------|---------------------|-----------------7-7-7-7-9-9-9-9-|
A|---7--9---9.-9.--9-9-|---7--9---9.-9.--9-9-|---7--9---9.-9.--9-9-|---------------------------------|
E|-0-------------------|-0-------------------|-0-------------------|---------------------------------| 2x
  ^ ^ ^  v v  v ^  ^ ^ ^  v v  v ^  ^ ^ ^  v v  v ^  ^ v ^ v ^ v ^ v ^ v ^ v ^ v ^ v


Outro:
G|---------------------|---------------------|---------------------|---------------------|
D|---------------------|--------------11-----|---------------------|--------------11-----|
A|---7.-7.--7h9-9.-----|--9.----9/--12---12\-|---7.-7.--7h9-9.-----|--9.----9/--12---12\-|
E|---------------------|---------------------|---------------------|---------------------| 2x
  Pins needles no one talks any...       Pins needles no one talks anymore

G|---------------------|---------------------|---------------------|---------------------|
D|---------------------|--------------11-----|---------------------|--------------11-----|
A|---7.-7.--7h9-9.-----|--9.----9/--12---12\-|---7.-7.--7h9-9.-----|--9.----9/--12---12\-|
E|---------------------|---------------------|---------------------|---------------------|

G|---------------------|---------------------|---------------------|-7-7-7-7-6-6-6-6-----------------|
D|---------------------|--------------11-----|---------------------|-----------------7-7-7-7-9-9-9-9-|
A|---7.-7.--7h9-9.-----|--9.----9/--12---12\-|---7.-7.--7h9-9.-----|---------------------------------|
E|---------------------|---------------------|---------------------|---------------------------------|
                                   ^ v ^ v ^ v ^ v ^ v ^ v ^ v ^ v

***********************
/ - slide up
\ - slide down
. - staccato note
h - hammer on
^ - strum down (if using a pick)
v - strum up (if using a pick)
r - half rest
***********************

Almost there ...

Sign in to get your own page with links to favourite songs and more. You are just one click away...

Login with Facebook Login with Google