Log in

One click and you are in

Login with Facebook Login with Google

Why sign up and log in

Guitar Tabs Explorer
Country Teasers bass tabs for Golden apples

Bass tabs

Tuning: Standard (E A D G)


Intro:

Mute notes as the snare hits.
                                 Staccato on the last walkup.
G|----------------------|------------------------|-------------------------------------|
D|----------------------|------------------------|-------------------------------------|
A|---Eight bar Rest-----|--/2r-2-0r--0-----------|--/7--5r--5--------------0r-1r-2~~r--|
E|----------------------|-------------2-2r--2-0~~|------------0-1-2-2r---2-------------|
Verse:

Basically the entire song. You can change the accents on the slide up to 2 at the beginning
or make the walkup legato.

G|------------------------|-------------------------------------|
D|------------------------|-------------------------------------|
A|---2r-2-0r--0-----------|--/7--5r--5--------------0r-1r-2~~r--|
E|-------------2-2r--2-0~~|------------0-1-2-2r---2-------------|

Variation:

He only does this once four or so bars after the solo so
I assume it's a mistake, but you can throw it in to change it up.

G|------------------------|-------------------------------------|
D|------------------------|-------------------------------------|
A|---2r-2-0r--0-----------|--/7--5r--5---------------1r-2r------|
E|-------------2-2---2-0~~|------------0-1-2-2r-2-2-------------|


Outro:

G|------------------------|-------------------------------------------------------|
D|------------------------|-------------------------------------------------------|
A|---2r-2-0r--0-----------|--/7--5r--5--------------0r-1r-2~~~~-Fade or end on B--|
E|-------------2-2---2-0~~|------------0-1-2-2r---2-------------------------------|


************************************

| r Release
| / Slide up
| ~ Vibrato

************************************

Almost there ...

Sign in to get your own page with links to favourite songs and more. You are just one click away...

Login with Facebook Login with Google