Log in

One click and you are in

Login with Facebook Login with Google

Why sign up and log in

Guitar Tabs Explorer
Matt Costa bass tabs for Mr pitiful

Bass tabs with lyrics

Mr. Pitiful - Matt Costa

Tabbed By: whizkid8888
Standard tuning (EADG)

A few notes:
 - Rhythm should be mostly accurate in this tab; each "-" is a sixteenth beat, and vertical bars split measures.
 - The measures with four notes each (most of the song) are generally staccato (eighth notes)
 - In the eighth note portion in the second verse ("So where did you go " & "Well I don't believe..."),
   usually only the first note of each four-note set is staccato.
 - Have fun!

As always, corrections and suggestions are welcome and encouraged!

---

Piano Intro & "Oh Mr. Pit..."
0:00

0:35 - "But please..."
G:----------------|--------0---0---|----------------|--------0---0---|
D:--------0---0---|3---3-----------|--------0---0---|3---3-----------|
A:3---3-----------|----------------|3---3-----------|----------------|
E:----------------|----------------|----------------|----------------|

G:0---0---0---0---|0-0-0-0-0-0-0-0-|
D:---------------3|----------------|
A:----------------|----------------|
E:----------------|----------------|

0:48 - "I just want to know..."
G:2---2-----------|----------------|2---2-----------|----------------|
D:--------3---3---|--------2---2---|--------3---3---|--------2---2---|
A:----------------|3---3-----------|----------------|3---3-----------|
E:----------------|----------------|----------------|----------------|

G:2-------0---0---|----------------|2---2---0---0---|----------------|
D:----------------|2---2---0---0---|----------------|2---2---0---0---|
A:----------------|----------------|----------------|----------------|
E:----------------|----------------|----------------|----------------|

1:06 - "To make amends..."
G:2---------------|----------------|2---2---0---0---|----------------|
D:----------------|4-------3-------|----------------|4---4---3---3---|
A:----------------|----------------|----------------|----------------|
E:----------------|----------------|----------------|----------------|

G:2-------0-------|----------------|----------------|-89-7-5-5-7---5-|
D:----------------|4-------3-------|2---------------|------------7---|
A:----------------|----------------|----------------|----------------|
E:----------------|----------------|----------------|----------------|

1:23 - "So where did you go "
G:5-5-----5-5-----|5-5-----5-5-----|----------------|----------------|
D:----7-5-----7-5-|----7-5-----7-5-|3-3-----------5-|7-----5-7-----5-|
A:----------------|----------------|----5-3-----7---|----7-------7---|
E:----------------|----------------|--------5-5-----|--5-------5-----|

G:----------------|----------------|--------|
D:7-----5-5-5-----|5-5-----5-5-----|5-5-----|
A:----7-------7-5-|----7-5-----7-5-|----7-5-|
E:--5-------------|----------------|--------|

1:30 - "Well I don't believe..."
G:5-5-----5-5-----|5-5-----5-5-----|----------------|----------------|
D:----7-5-----7-5-|----7-5-----7-5-|3-3-----------5-|7-----5-7-----5-|
A:----------------|----------------|----5-3-----7---|----7-------7---|
E:----------------|----------------|--------5-5-----|--5-------5-----|

G:----------------|--------|
D:7-----5-5-5-----|5-5-----|
A:----7-------7-5-|----7-5-|
E:--5-------------|--------|

1:50 - "But please..."
G:----------------|--------0---0---|----------------|--------0---0---|
D:--------0---0---|3---3-----------|--------0---0---|3---3-----------|
A:3---3-----------|----------------|3---3-----------|----------------|
E:----------------|----------------|----------------|----------------|

G:0---0---0---0---|0-0-0-0-0-0-0-0-|0-0-0-0-|
D:---------------3|----------------|--------|
A:----------------|----------------|--------|
E:----------------|----------------|--------|

2:03 - "I just want to know..."
G:2---2-----------|----------------|2---2-----------|----------------|
D:--------3---3---|--------2---2---|--------3---3---|--------2---2---|
A:----------------|3---3-----------|----------------|3---3-----------|
E:----------------|----------------|----------------|----------------|

G:2---2---0---0---|----------------|2---2---0---0---|----------------|
D:----------------|2---2---0---0---|----------------|2---2---0---0---|
A:----------------|----------------|----------------|----------------|
E:----------------|----------------|----------------|----------------|

2:21 - "To make amends..."
G:2---------------|----------------|2---2---0---0---|----------------|
D:----------------|4-------3-------|----------------|4---4---3---3---|
A:----------------|----------------|----------------|----------------|
E:----------------|----------------|----------------|----------------|

G:2---2---0---0---|----------------|2---2---0---0---|----------------|
D:----------------|4---4---3---3---|----------------|4---4---3---3---|
A:----------------|----------------|----------------|----------------|
E:----------------|----------------|----------------|----------------|

G:----------------|----------------|----------------|----------------|
D:2---------------|----------------|0---------------|----------------|
A:----------------|----------------|----------------|----------------|
E:----------------|----------------|----------------|----------------|

2:48 - "Still be my friend..."
G:----------------|----------------|
D:----------------|----------------|
A:3---------------|----------------|

Almost there ...

Sign in to get your own page with links to favourite songs and more. You are just one click away...

Login with Facebook Login with Google