Log in

One click and you are in

Login with Facebook Login with Google

Why sign up and log in

Guitar Tabs Explorer
Cory Wong bass tabs for Disco de lune

Bass tabs

Key: Db


Intro: (0:00)
G|----6-----6------6----6-6----6-----6--------|----6-----6------6----6-6----6-----6--------|
D|--------------------------------------------|--------------------------------------------|
A|-4-----4-----4------------4-----4-----4-----|-4-----4-----4------------4-----4-----4-----|
E|--------------------------------------------|--------------------------------------------|


Verse 1: (0:08)
G|----6-----6------6----6-6----6-----6--------|--------------------------------------------|
D|--------------------------------------------|----4-----4------4----4-4----4-----4--------|
A|-4-----4-----4------------4-----4-----4-----|--------------------------------------------|
E|--------------------------------------------|-2-----2-----2------------2-----2-----2-----|

G|----6-----6------6----6-6----6-----6--------|--------------------------------------------|
D|--------------------------------------------|----4-----4------4----4-4----4-----4--------|
A|-4-----4-----4------------4-----4-----4-----|--------------------------------------------|
E|--------------------------------------------|-2-----2-----2------------2-----2-----2-----|

G|--------------------------------------------|------------------------------8-----8--------|
D|----6-----6------6----6-6----7-----7--------|----8-----8------8---------------------------|
A|--------------------------------------------|---------------------x-8-7-6-----6-----6-----|
E|-4-----4-----4------------5-----5-----5-----|-6-----6-----6-------------------------------|

G|---------------------------------------|-------------------------------|
D|----------6-6-----6-6-----6-6---6------|----6-6-----6-6-----6-6---6----|
A|---------------------------------------|-------------------------------|
E|-x-2-3-4-------4-------4------4--------|-4-------4-------4------4------|

G|-------------------------------|-------------------------------|
D|----6-6-----6-6-----6-6---6----|-------------------------------|
A|-------------------------------|-------------------------------|
E|-4-------4-------4------4------|-4-----------------------------|

Chorus: (0:39)
G|-------6-----6------6----6-6----6-----6--------|----------------------------------------------|
D|-----------------------------------------------|----4-----4------4----4-4----4-----4----------|
A|----4-----4-----4------------4-----4-----4-----|------------------------------------------16\-|
E|-2---------------------------------------------|-2-----2-----2------------2-----2-----2-------|

G|----6-----6------6----6-6----6-----6--------|--------------------------------------------|
D|--------------------------------------------|----4-----4------4----4-4----4-----4--------|
A|-4-----4-----4------------4-----4-----4-----|--------------------------------------------|
E|--------------------------------------------|-2-----2-----2------------2-----2-----2-----|

G|--------------------------------------------|------------------------------8-----8--------|
D|----6-----6------6----6-6----7-----7--------|----8-----8------8---------------------------|
A|--------------------------------------------|---------------------x-8-7-6-----6-----6-----|
E|-4-----4-----4------------5-----5-----5-----|-6-----6-----6-------------------------------|

G|---------------------------------------|-------------------------------|
D|----------6-6-----6-6-----6-6---6------|----6-6-----6-6-----6-6---6----|
A|---------------------------------------|-------------------------------|
E|-x-2-3-4-------4-------4------4--------|-4-------4-------4------4------|

G|-------------------------------|-------------------------------|
D|----6-6-----6-6-----6-6---6----|-------------------------------|
A|-------------------------------|-------------------------------|
E|-4-------4-------4------4------|-4-----------------------------|

Interlude:(1:11)
G|-------6-----6------6----6-6----6-----6--------|----6-----6------6----6-6----6-----6--------|
D|-----------------------------------------------|--------------------------------------------|
A|----4-----4-----4------------4-----4-----4-----|-4-----4-----4------------4-----4-----4-----|
E|-2---------------------------------------------|--------------------------------------------|


Verse 2: (1:19)
G|----6-----6------6----6-6----6-----6-------------|----4-----4------4----4-4----4-----4--------|
D|-------------------------------------------------|--------------------------------------------|
A|-4-----4-----4------------4-----4-----4----x-4-3-|-2-----2-----2------------2-----2-----2-----|
E|-------------------------------------------------|--------------------------------------------|

G|--------------------------------------------|--------------------------------------------------|
D|----8-----8------8----8-8----7-----7--------|-------6-----6-----5-----5-----4-----3--------5-6-|
A|--------------------------------------------|----------------------------------------6-8-9-----|
E|-6-----6-----6------------5-----5-----5-----|-2--4-----4-----3-----3-----2-----1---------------|

G|----6-----6------6----6-6----6-----6-------------|----4-----4------4----4-4----4-----4-------------|
D|-------------------------------------------------|-------------------------------------------------|
A|-4-----4-----4------------4-----4-----4----x-4-3-|-2-----2-----2------------2-----2-----2----------|
E|-------------------------------------------------|-------------------------------------------x-4-5-|

G|-------------------------------------------------|-----------------------------------------------|
D|----8-----8------8----8-8----7-----7-------------|----6-----6-----5-----5-----4-----3--------5-6-|
A|-------------------------------------------------|-------------------------------------6-8-9-----|
E|-6-----6-----6------------5-----5-----5----x-2-3-|-4-----4-----3-----3-----2-----1---------------|

G|-----------------------------------|
D|-------5-6-------------------------|
A|-6-8-9-----------------------------|
E|-----------------------------------|


Chorus: (1:52)
G|-------6-----6------6----6-6----6-----6--------|--------------------------------------------|
D|-----------------------------------------------|----4-----4------4----4-4----4-----4--------|
A|----4-----4-----4------------4-----4-----4-----|--------------------------------------------|
E|-2---------------------------------------------|-2-----2-----2------------2-----2-----2-----|

G|-------6-----6------6----6-6----6-----6--------|--------------------------------------------|
D|-----------------------------------------------|----4-----4------4----4-4----4-----4--------|
A|----4-----4-----4------------4-----4-----4-----|--------------------------------------------|
E|-2---------------------------------------------|-2-----2-----2------------2-----2-----2-----|

G|--------------------------------------------------|------------------------------8-----8--------|
D|----------6-----6------6----6-6----7-----7--------|----8-----8------8---------------------------|
A|--------------------------------------------------|---------------------x-8-7-6-----6-----6-----|
E|-x-2-3-4-----4-----4------------5-----5-----5-----|-6-----6-----6-------------------------------|

G|---------------------------------------|-------------------------------|
D|----------6-6-----6-6-----6-6---6------|----6-6-----6-6-----6-6---6----|
A|---------------------------------------|-------------------------------|
E|-x-2-3-4-------4-------4------4--------|-4-------4-------4------4------|

G|-------------------------------|-------------------------------|
D|----6-6-----6-6-----6-6---6----|-------------------------------|
A|-------------------------------|-------------------------------|
E|-4-------4-------4------4------|-4-----------------------------|


Verse 3: (2:23)
G|-------6-----6------6----6-6----6-----6-------------|--------------------------------------------|
D|----------------------------------------------------|----4-----4------4----4-4----4-----4--------|
A|----4-----4-----4------------4-----4-----4----x-2-4-|--------------------------------------------|
E|-2--------------------------------------------------|-2-----2-----2------------2-----2-----2-----|

G|----6-----6------6----6-6----6-----6-------------|--------------------------------------------|
D|-------------------------------------------------|----4-----4------4----4-4----4-----4--------|
A|-4-----4-----4------------4-----4-----4----x-2-4-|--------------------------------------------|
E|-------------------------------------------------|-2-----2-----2------------2-----2-----2-----|

G|--------------------------------------------------|------------------------------8-----8--------|
D|----------6-----6------6----6-6----7-----7--------|----8-----8------8---------------------------|
A|--------------------------------------------------|---------------------x-8-7-6-----6-----6\----|
E|-x-2-3-4-----4-----4------------5-----5-----5-----|-6-----6-----6-------------------------------|

G|---------------------------------------|-------------------------------|
D|----------6-6-----6-6-----6-6---6------|----6-6-----6-6-----6-6---6----|
A|---------------------------------------|-------------------------------|
E|-x-2-3-4-------4-------4------4--------|-4-------4-------4------4------|

G|-------------------------------|-------------------------------|
D|----6-6-----6-6-----6-6---6----|-------------------------------|
A|-------------------------------|-------------------------------|
E|-4-------4-------4------4------|-4-----------------------------|


Outro: (2:54)
G|-------6-----6------6----6-6----6-----6--------|----6-----6------6----6-6----6-----6--------|
D|-----------------------------------------------|--------------------------------------------|
A|----4-----4-----4------------4-----4-----4-----|-4-----4-----4------------4-----4-----4-----|
E|-2---------------------------------------------|--------------------------------------------|

G|----6-----6------6----6-6----6-----6--------|----6-----6------6----6-6----6-----6-----------------|
D|--------------------------------------------|-----------------------------------------------------|
A|-4-----4-----4------------4-----4-----4-----|-4-----4-----4------------4-----4-----4----4-7-4-----|
E|--------------------------------------------|-----------------------------------------4-------7-4-|

G|----6-----6------6----6-6----6-----6-----------------|
D|-----------------------------------------x-4-6-4-----|
A|-4-----4-----4------------4-----4-----4----------7-6-|
E|-----------------------------------------------------|

G|----6-----6------6----6-6-----------------8-7-6--------|
D|-----------------------------------8-7-6---------8-6---|
A|-4-----4-----4------------4--7-6---------------------8-|
E|-------------------------------------------------------|

G|----6-----6-------6----6-6----6-----6-------------|----6-----6------6----6-6----6-----------------------|
D|--------------------------------------------------|-----------------------------------------------------|
A|-4-----4------4------------4-----4-----4----x-----|-4-----4-----4------------4-----4--------4-2-4-2-----|
E|------------4---------------------------------6-8-|-----------------------------------x-2-4---------4-2-|

G|----6-----6-------6----6-6----6-----6--x-8-----------|
D|--------------------------------------------5--8-6---|
A|-4-----4------4------------4-----4-----------------8-|
E|------------4----------------------------------------|

G|----6-----6-------6----6-6----6-----6------------------|
D|-------------------------------------------------------|
A|-4-----4------4------4-----4-----4---------------------|
E|------------4--------------------------5-4-5-7-5-4-5-4-|

G|----6-----6-------6----6-6----6-----6-------------|----6-----6-------6----6-6----6-----6---------|
D|--------------------------------------------------|----------------------------------------------|
A|-4-----4------4------4-----4-----4-----4----x-----|-4-----4------4------4-----4-----4------4-----|
E|------------4---------------------------------5-4-|------------4-------------------------4-------|

☠☠☠☠☠☠☠☠☠☠☠☠☠☠☠☠☠☠☠☠☠☠☠☠☠☠☠☠☠☠☠☠☠☠☠☠

| \ Slide down
| x Ghost Note

☠☠☠☠☠☠☠☠☠☠☠☠☠☠☠☠☠☠☠☠☠☠☠☠☠☠☠☠☠☠☠☠☠☠☠☠

Almost there ...

Sign in to get your own page with links to favourite songs and more. You are just one click away...

Login with Facebook Login with Google