Guitar Tabs Explorer
Chris Cornell guitar tabs for Sweet euphoria

Sweet Euphoria tab


Be the first to rate


Apollonia93Author: Apollonia93

Sweet Euphoria tab by Chris Cornell

The tuning is a few cents flat of D in the studio version. So it`s roughly 1 1/4 steps down from standard E. I am mentioning this, because if you play along with the CD, your guitar is going to sound out of tune if you don`t flatten the tuning a little.

Guitar tabs with lyrics

Print
  • Tuning: D Tuning
Chord names are named per shape, as if we were in standard tuning.

If you would like to see my video lesson, click here: https://www.youtube.com/watch?v=BZrLMuThVQ4

[INTRO] E chord diagramEE

d|----------0-------------0-----------0---------0--|
d|--------0---0---------0---0-----0------0---------|
F| chord diagramF|F|-----1------------1------------------------0-----|
C| chord diagramC|C|-------------------------------------------------|
G|---------------2---------------------------------|
D|--0--------------------------0-------------------|


[1st VERSE]  x2

    E chord diagramEE  A chord diagramAA  G chord diagramGG  F chord diagramFF    C chord diagramCC  Bm chord diagramBmBm  E chord diagramEE      E chord diagramEE    A chord diagramAA   E chord diagramEE    A chord diagramAA  Gdim7/E chord diagramEE  F#m chord diagramF#mF#m  E7 chord diagramE7E7/G# chord diagramG#G#  F#m chord diagramF#mF#m  F chord diagramFF  C chord diagramCC/G chord diagramGG  G chord diagramGG  Am chord diagramAmAm  D chord diagramDD               E chord diagramEE
d|--0-----3--1----------0-0---0-0-0--0---0---0---0--------2----0------2----1-------3---0--2-2h3p2p0-------0--|
A|--0--2--3--1----1--3--0-0---0-0-0--2---0---2---0--------2----0------2----1---1---3---1--3---------3-----0--|
G|--1--2--0--3-0--0--4--1-1---1-1-0--2---1---2---1--------2----1------2----2---0---0---2--2---------------1--|
G|--2--2--0--3-3--2--4--2-------2----2---2---2---0--------4----0------4----3---2---0---2--0---------------2--|
D|--2--0--3--1-1--3--2--2---0---2----0---2---0---2--------4----2------4----3---3---2---0------------------2--|
D|--0-----3--1-1--------0-------0--------0-------1--------2----0------2----1---3---3------------------3b--0--|


[1st CHORUS]

    A chord diagramAA   Cadd9 chord diagramCadd9Cadd9   Bmadd9    Bbdim7  Bbdim7#5  Bbmdim7   G7 chord diagramG7G7/B chord diagramBB  Bbdim7  Bbdim7#5    F#m chord diagramF#mF#m
d|------3-------3---------0-------2---------0---------3-----0-------2------------2--|
A|--2---3-------3---------2-------2---------2---------3-----2-------2------------2--|
F| chord diagramF|F|--2---0-------0---------0-------0---------0---------0-----0-------0------------2--|
C| chord diagramC|C|--2---2-------0---------2-------2---------2---------3-----2-------2------------4--|
G|--0---3-------2---------1-------1---------1---------2-----1-------1------------4--|
D|-------------------------------------------------------------------------------2--|


    F#m chord diagramF#mF#m/E chord diagramEE   E chord diagramEE   F chord diagramFF   A chord diagramAA   D chord diagramDD   E chord diagramEE
d|--2-------0---1-------2---0--|
A|--2-------0---1---2---3---0--|
F| chord diagramF|F|--2-------1---2---2---2---1--|
C| chord diagramC|C|--4-------2---3---2---0---2--|
G|--4-------2---3---0-------2--|
D|--0-------0---1-----------0--|



[2nd VERSE] x1

    E chord diagramEE  A chord diagramAA  G chord diagramGG  F chord diagramFF F5 chord diagramF5F5 C chord diagramCC Bm chord diagramBmBm  E chord diagramEE       E chord diagramEE    A chord diagramAA   E chord diagramEE   A chord diagramAA  Gdim7/E chord diagramEE  F#m chord diagramF#mF#m  E7 chord diagramE7E7/G# chord diagramG#G#  F#m chord diagramF#mF#m   F chord diagramFF  C chord diagramCC/G chord diagramGG  G chord diagramGG  Am chord diagramAmAm  D chord diagramDD               E chord diagramEE
d|--0-----3--1----------0-0---0-0-0--0---0---0---0--------2----0------2----1-------3---0--2-2h3p2p0-------0--|
A|--0--2--3--1----1--3--0-0---0-0-0--2---0---2---0--------2----0------2----1---1---3---1--3---------3-----0--|
G|--1--2--0--3-0--0--4--1-1---1-1-0--2---1---2---1--------2----1------2----2---0---0---2--2---------------1--|
G|--2--2--0--3-3--2--4--2-------2----2---2---2---0--------4----0------4----3---2---0---2--0---------------2--|
D|--2--0--3--1-1--3--2--2---0---2----0---2---0---2--------4----2------4----3---3---2---0------------------2--|
D|--0-----3--1-1--------0-------0--------0-------1--------2----0------2----1---3---3------------------3b--0--|


[2nd CHORUS]

    A chord diagramAA   Cadd9 chord diagramCadd9Cadd9   Bmadd9    Bbdim7  Bbdim7#5  Bbmdim7   G7 chord diagramG7G7/B chord diagramBB  Bbdim7  Bbdim7#5    F#m chord diagramF#mF#m
d|------3-------3---------0-------2---------0---------3-----0-------2------------2--|
A|--2---3-------3---------2-------2---------2---------3-----2-------2------------2--|
F| chord diagramF|F|--2---0-------0---------0-------0---------0---------0-----0-------0------------2--|
C| chord diagramC|C|--2---2-------0---------2-------2---------2---------3-----2-------2------------4--|
G|--0---3-------2---------1-------1---------1---------2-----1-------1------------4--|
D|-------------------------------------------------------------------------------2--|


    F#m chord diagramF#mF#m/E chord diagramEE   E chord diagramEE   F chord diagramFF   A chord diagramAA   D chord diagramDD   E chord diagramEE
d|--2-------0---1-------2---0--|
A|--2-------0---1---2---3---0--|
F| chord diagramF|F|--2-------1---2---2---2---1--|
C| chord diagramC|C|--4-------2---3---2---0---2--|
G|--4-------2---3---0-------2--|
D|--0-------0---1-----------0--|


[OUTRO]

    F chord diagramFF   A chord diagramAA    F chord diagramFF   A chord diagramAA    F chord diagramFF   A chord diagramAA   D chord diagramDD   E chord diagramEE
d|--1--------1--------1-------2---0------------------------------|
A|--1---2----1---2----1---2---3---0--------------------------------|
F| chord diagramF|F|--2---2----2---2----2---2---2---1--------------------------------|
C| chord diagramC|C|--3---2----3---2----3---2-------2-------------------------------|
G|--3---0----3---0----3---0-------2------------------------------|
D|--1--------1--------1-----------0---------------------------|


    E chord diagramEE       A chord diagramAA   G chord diagramGG   F chord diagramFF                              A chord diagramAA
d|----0---------3---1------1-------1---------1--------|
A|------3---2---2---1-----1-------2--------1-------2--|
F| chord diagramF|F|----------2---0---2----2-------2-------2---------2--|
C| chord diagramC|C|----------2---0---3---3-------3------3-----------2--|
G|----------0---2---3--3-------3-----3-------------0--|
D|--0-----------3---1---------1-----------------------|



Tab legend

h  hammer-on
p  pull-off
b bend

Other versions of Sweet Euphoria

- Sweet euphoriaChords
- Sweet euphoria (Ver. 2)Chords

Comment this song and these guitar tabs

Do you have corrections, comments on the guitar tabs, thoughts about the song or a message to the author? Write them below.