Search tabs and chords

Search for song, artist or band

Log in

One click and you are in

Login with Facebook Login with Google

Why sign up and log in

Guitar Tabs Explorer
Chris Cornell guitar tabs for Sweet euphoria

Guitar tabs with lyrics

  • Tuning: D Tuning
Chord names are named per shape, as if we were in standard tuning.

If you would like to see my video lesson, click here: https://www.youtube.com/watch?v=BZrLMuThVQ4

[INTRO] A chord diagramE MajorE

d|----------0-------------0-----------0---------0--|
d|--------0---0---------0---0-----0------0---------|
F|-----1------------1------------------------0-----|
C|-------------------------------------------------|
G|---------------2---------------------------------|
D|--0--------------------------0-------------------|
[1st VERSE]  x2

    A chord diagramE MajorE  A chord diagramA majorA  A chord diagramG MajorG  A chord diagramFF    A chord diagramC majorC  A chord diagramB minorBm  A chord diagramE MajorE      A chord diagramE MajorE    A chord diagramA majorA   A chord diagramE MajorE    A chord diagramA majorA  Gdim7/E  A chord diagramF# minorF#m  E7/G#  A chord diagramF# minorF#m  A chord diagramFF  A chord diagramC/GC/G  A chord diagramG MajorG  A chord diagramA minorAm  A chord diagramD MajorD               A chord diagramE MajorE
d|--0-----3--1----------0-0---0-0-0--0---0---0---0--------2----0------2----1-------3---0--2-2h3p2p0-------0--|
A|--0--2--3--1----1--3--0-0---0-0-0--2---0---2---0--------2----0------2----1---1---3---1--3---------3-----0--|
G|--1--2--0--3-0--0--4--1-1---1-1-0--2---1---2---1--------2----1------2----2---0---0---2--2---------------1--|
G|--2--2--0--3-3--2--4--2-------2----2---2---2---0--------4----0------4----3---2---0---2--0---------------2--|
D|--2--0--3--1-1--3--2--2---0---2----0---2---0---2--------4----2------4----3---3---2---0------------------2--|
D|--0-----3--1-1--------0-------0--------0-------1--------2----0------2----1---3---3------------------3b--0--|


[1st CHORUS]

    A chord diagramA majorA   A chord diagramCadd9Cadd9   A chord diagramBmadd9Bmadd9    A chord diagramBbdim7Bbdim7  Bbdim7#5  Bbmdim7   G7/B  A chord diagramBbdim7Bbdim7  Bbdim7#5    A chord diagramF# minorF#m
d|------3-------3---------0-------2---------0---------3-----0-------2------------2--|
A|--2---3-------3---------2-------2---------2---------3-----2-------2------------2--|
F|--2---0-------0---------0-------0---------0---------0-----0-------0------------2--|
C|--2---2-------0---------2-------2---------2---------3-----2-------2------------4--|
G|--0---3-------2---------1-------1---------1---------2-----1-------1------------4--|
D|-------------------------------------------------------------------------------2--|

    F#m/E   A chord diagramE MajorE   A chord diagramFF   A chord diagramA majorA   A chord diagramD MajorD   A chord diagramE MajorE
d|--2-------0---1-------2---0--|
A|--2-------0---1---2---3---0--|
F|--2-------1---2---2---2---1--|
C|--4-------2---3---2---0---2--|
G|--4-------2---3---0-------2--|
D|--0-------0---1-----------0--|



[2nd VERSE] x1

    A chord diagramE MajorE  A chord diagramA majorA  A chord diagramG MajorG  A chord diagramFF A chord diagramF5F5 A chord diagramC majorC A chord diagramB minorBm  A chord diagramE MajorE       A chord diagramE MajorE    A chord diagramA majorA   A chord diagramE MajorE   A chord diagramA majorA  Gdim7/E  A chord diagramF# minorF#m  E7/G#  A chord diagramF# minorF#m   A chord diagramFF  A chord diagramC/GC/G  A chord diagramG MajorG  A chord diagramA minorAm  A chord diagramD MajorD               A chord diagramE MajorE
d|--0-----3--1----------0-0---0-0-0--0---0---0---0--------2----0------2----1-------3---0--2-2h3p2p0-------0--|
A|--0--2--3--1----1--3--0-0---0-0-0--2---0---2---0--------2----0------2----1---1---3---1--3---------3-----0--|
G|--1--2--0--3-0--0--4--1-1---1-1-0--2---1---2---1--------2----1------2----2---0---0---2--2---------------1--|
G|--2--2--0--3-3--2--4--2-------2----2---2---2---0--------4----0------4----3---2---0---2--0---------------2--|
D|--2--0--3--1-1--3--2--2---0---2----0---2---0---2--------4----2------4----3---3---2---0------------------2--|
D|--0-----3--1-1--------0-------0--------0-------1--------2----0------2----1---3---3------------------3b--0--|


[2nd CHORUS]

    A chord diagramA majorA   A chord diagramCadd9Cadd9   A chord diagramBmadd9Bmadd9    A chord diagramBbdim7Bbdim7  Bbdim7#5  Bbmdim7   G7/B  A chord diagramBbdim7Bbdim7  Bbdim7#5    A chord diagramF# minorF#m
d|------3-------3---------0-------2---------0---------3-----0-------2------------2--|
A|--2---3-------3---------2-------2---------2---------3-----2-------2------------2--|
F|--2---0-------0---------0-------0---------0---------0-----0-------0------------2--|
C|--2---2-------0---------2-------2---------2---------3-----2-------2------------4--|
G|--0---3-------2---------1-------1---------1---------2-----1-------1------------4--|
D|-------------------------------------------------------------------------------2--|


    F#m/E   A chord diagramE MajorE   A chord diagramFF   A chord diagramA majorA   A chord diagramD MajorD   A chord diagramE MajorE
d|--2-------0---1-------2---0--|
A|--2-------0---1---2---3---0--|
F|--2-------1---2---2---2---1--|
C|--4-------2---3---2---0---2--|
G|--4-------2---3---0-------2--|
D|--0-------0---1-----------0--|


[OUTRO]

    A chord diagramFF   A chord diagramA majorA    A chord diagramFF   A chord diagramA majorA    A chord diagramFF   A chord diagramA majorA   A chord diagramD MajorD   A chord diagramE MajorE
d|--1--------1--------1-------2---0------------------------------|
A|--1---2----1---2----1---2---3---0--------------------------------|
F|--2---2----2---2----2---2---2---1--------------------------------|
C|--3---2----3---2----3---2-------2-------------------------------|
G|--3---0----3---0----3---0-------2------------------------------|
D|--1--------1--------1-----------0---------------------------|


    A chord diagramE MajorE       A chord diagramA majorA   A chord diagramG MajorG   A chord diagramFF                              A chord diagramA majorA
d|----0---------3---1------1-------1---------1--------|
A|------3---2---2---1-----1-------2--------1-------2--|
F|----------2---0---2----2-------2-------2---------2--|
C|----------2---0---3---3-------3------3-----------2--|
G|----------0---2---3--3-------3-----3-------------0--|
D|--0-----------3---1---------1-----------------------|



Tab legend

h  hammer-on
p  pull-off
b bend

Sweet Euphoria tab

Chris Cornell guitar tabs for Sweet euphoria The tuning is a few cents flat of D in the studio version. So it`s roughly 1 1/4 steps down from standard E. I am mentioning this, because if you play along with the CD, your guitar is going to sound out of tune if you don`t flatten the tuning a little.

Other versions of Sweet Euphoria

Sweet euphoriaChords
Sweet euphoria (Ver. 2)Chords

Almost there ...

Sign in to get your own page with links to favourite songs and more. You are just one click away...

Login with Facebook Login with Google