Search tabs and chords

Search for song, artist or band

Log in

One click and you are in

Login with Facebook Login with Google

Why sign up and log in

Guitar Tabs Explorer
Chris Cornell guitar tabs for Nowhere but you

Guitar tabs with lyrics

  • Tuning: Drop D
Off off the Poncier demo: https://www.youtube.com/watch?v=IACTJoUReBQ

The tuning is drop D chord diagramDD and features layered electric guitars. Large parts of the song are audibly played
with a tremolo. If you don`t have one, you could also bend and prebend the strings, instead. I notated both.
If you would like to see my video lesson, click here: https://www.youtube.com/watch?v=NCsAXZu0uaQ
                                    e|----|
                                    B|----|
                                    G|-9*-|
Volume slider off, strike harmonic  D|-9*-|  Turn volume slider on and back off
                                    A|-9*-|
                                    E|----|

Alternatively, try striking the muted strings to see if you can get a similar sound down.


INTRO/VERSE 0:01 x2

e|-----------------------------------------------------|
B|-----------------------------------------------------|
G|-----------------------------------------------------|
D|-----------------------------------------------------|
A|-------5------0-----5-5-------5----------------------|
D|-0--------8---7-------6---0---5---5-4-3---3-3-3h5-5b-|


e|--------------------------------------------------------|
B|--------------------------------------------------------|
G|--------------------------------------------------------|
D|--------------------------------------------------------|
A|-------5------0-------5b-5-------5----------------------|
D|-0--------8---7---7------6---0---5---5-4-3-----3-3h5-5b-|


VERSE 0:30

e|------------------------------------------|
B|------------------------------------------|
G|------------------------------------------|
D|------------------------------------------|
A|-------5------0-------5-5--------5--------|
D|-0--------8---7---7-----6---0----5-----3b-|

e|---------------------------------------------------|
B|---------------------------------------------------|
G|---------------------------------------------------|
D|------------------------------------------5--------|
A|-------5------0-------5b-5---5-5-5--------5--------|
D|-0--------8---7---7------6---6-6-6---0----5-5---3b-|

e|------------------------------------------------------|
B|------------------------------------------------------|
G|------------------------------------------------------|
D|------------------------------------------------------|
A|-------5------0---5-5---5-5-------5-------------------|
D|-0--------8---7-----6---6-6---0---5---5-4-3---3-3h5-5-|

e|------------------------------------------|
B|------------------------------------------|
G|------------------------------------------|
D|------------------------------------------|
A|-------5------0---5b-5---p0-------5---0---|
D|-0--------8---7------6------p0------5---0-|

VERSE 1 LEAD (tremolo)

e|--------------------------------------------------------------------------------------------------|
B|-17tr19tr17tr19-15-15tr13tr15--10tr11-10tr11-----10tr11---17tr18tr17--15----15----8b10---8b10b9b8-|
G|--------------------------------------------------------------------------14--14------------------|
D|--------------------------------------------------------------------------------------------------|
A|--------------------------------------------------------------------------------------------------|
E|--------------------------------------------------------------------------------------------------|

(without tremolo)

e|-------------------------------------------------------------------------------------------|
b|-17b19b17b19-15-13~/15--10---10b11-10b11-----10b11---17b19b17--15----15----8b10---8b10b9b8-|
G|--------------------------------------------------------------------14--14-----------------|
D|-------------------------------------------------------------------------------------------|
A|-------------------------------------------------------------------------------------------|
D|-------------------------------------------------------------------------------------------|


CHORUS 1 RHYTHM 1:19

e|---------------------------------------0---------------------------------|
b|---------------------------------------0---------------------------------|
g|---------------------------------------0---------------------------------|
D|-----10----------------------------7-----------------------------7---7-7-|
A|-3---10----5---5-5/7-7/8---0--5b---7------7-6-5-----------0------7---7-7-|
D|-3---10--0-5---5-5/7-7/8-----------7------7-6-5---5h7-7---0--0---7---7-7-|

e|------------------------------------------------------------------------------------|
B|------------------------------------------------------------------------------------|
G|------------------------------------------------------------------------------------|
D|-----10-----------------------------------------------------------------------------|
A|-3---10------3/5--5-5/7-7/8-8-8-----5b------7-6-5-----5-4-3---7---3h5---------------|
D|-3---10---0--3/5--5-5/7-7/8-8-8---------7---7-6-5---0-5-4-3---7---3h5--5-4-3--3-2-1-|

e|-------------------------------------------------|
B|-------------------------------------------------|
G|-------------------------------------------------|
D|-------7---------------------------------------7-|
A|-------7---3-3h5----------3-----------1--------7-|
D|-1p0---7---3-3h5--5-5-5-4-3--3-3--3-2-1---1p0--7-|


CHORUS 1 LEAD (tremolo)

e|---------------------------|
b|--------------10-9-8--tr10-|
g|---------------------------|
d|-7tr9--9tr11---------------|
A|---------------------------|
D|---------------------------|

e|-------------------------------------------------------------------------|
B|-------------------------------------------------------------------------|
G|-------------------12tr10------15tr14---------------14-------------------|
D|-------------10b12--------12----------15tr14-15tr14-----12tr11-10---tr12-|
A|-8~-8\-/10---------------------------------------------------------------|
D|-------------------------------------------------------------------------|


e|---------------------------------------------------------------|
B|-16tr15tr15--17tr15tr17--14---tr15--16tr15tr16--17tr15tr17--14-|
G|---------------------------------------------------------------|
D|---------------------------------------------------------------|
A|---------------------------------------------------------------|
D|---------------------------------------------------------------|

(without tremolo)

e|------------------------|
b|------------10-9-8--b10-|
g|------------------------|
d|-7b9--9b11--------------|
A|------------------------|
D|------------------------|

e|-------------------------------------------------------------------------------|
B|-------------------------------------------------------------------------------|
G|--------------------12p10------14pb15---------------------14-------------------|
D|--------------10b12-------12----------14pb15b14-14pb15b14------11pb12-10---/12-|
A|-8~-8\-/10---------------------------------------------------------------------|
D|-------------------------------------------------------------------------------|


e|------------------------------------------------------|
B|-15b16b15--15b17b15--14---b15--15b16b15--15b17b15--14-|
G|------------------------------------------------------|
D|------------------------------------------------------|
A|------------------------------------------------------|
E|------------------------------------------------------|


VERSE 2 RHYTHM 2:28

e|-----------------------------------------------------------|
B|-----------------------------------------------------------|
G|-----------------------------------------------------------|
D|-----------------------------------------------------------|
A|-------5-----0-------5b---5b---0-----5-----5-4-3-----------|  x2
D|-0--------8--7-----7------6b-----0---5---5-5-4-3----3h5-5b-|

e|------------------------------------------------|
B|------------------------------------------------|
G|------------------------------------------------|
D|------------------------------------------------|
A|-------5------0-------5b---5-------------5----3-|
D|-0---------8--7-----7------6-----0-5-----5----3-|

e|----------------------------------------------|
B|----------------------------------------------|
G|----------------------------------------------|
D|----------------------------------------------|
A|-------5------0-------5b----5-------5-5-----3-|
D|-0---------8--7-----7-------6-----0-5-5-----3-|

e|------------------------------------------------------------|
B|------------------------------------------------------------|
G|------------------------------------------------------------|
D|------------------------------------------------------------|
A|-------5-------0--------5b---5-------5---0-5-4-3------------|
D|-0---------8---7-----7-------6-----0-5---0-5-4-3---3-3h5-5b-|

e|--------------------------------------------------|
B|--------------------------------------------------|
G|--------------------------------------------------|
D|--------------------------------------------------|
A|-------5-------0-------5b---5---------5-----------|
D|-0---------8---7-----7------6-----0-0-5--5-5-5b-0-|


VERSE 2 LEAD (tremolo)

e|-----------------------------------|
B|--17tr19-19tr18-17tr9-15----15tr14-|
G|-------------------------14--------|
D|-----------------------------------|
A|-----------------------------------|
D|-----------------------------------|

e|-------------------|-------------------------|----------------------------------|
B|-------------------|-15tr16-15tr16-15tr17-15-|----------------------------------|
G|-14tr13----13tr14--|-------------------------|-14tr13-14tr13--tr7-/14----14tr13-|
D|-------------------|-------------------------|----------------------------------|
A|-------------------|-------------------------|----------------------------------|
D|-------------------|-------------------------|----------------------------------|

e|---------------------------|------------------------------------|------------------|
B|-----------------13-13tr15-|-18tr19-15~--18tr19-15~--18tr19-15~-|----15---15-------|
G|-12tr11-11tr--12-12-12tr14-|------------------------------------|-14---14----\7tr6-|
D|---------------------------|------------------------------------|------------------|
A|---------------------------|------------------------------------|------------------|
D|---------------------------|------------------------------------|------------------|

e|----------------------------------------------------------------|
B|----------15----------------------15~-13tr12-13tr12-11tr10-8tr7-|
G|-13tr14--------13tr12----13tr14---------------------------------|
D|----------------------------------------------------------------|
A|----------------------------------------------------------------|
D|----------------------------------------------------------------|

(without tremolo)

e|-------------------------------------|
B|--17b19-19pb18-17b19-15----14pb15b14-|
G|-------------------------14----------|
D|-------------------------------------|
A|-------------------------------------|
D|-------------------------------------|

e|--------------------|----------------------|------------------------------------|
B|--------------------|-15b16-15b16-15b17-15-|------------------------------------|
G|-13pb14b13----13b14-|----------------------|-13pb14-13b14b13\7/14----13pb14b13-|
D|--------------------|----------------------|------------------------------------|
A|--------------------|----------------------|------------------------------------|
D|--------------------|----------------------|------------------------------------|

e|--------------------------|---------------------------------|-----------------------|
B|-----------------13-13/15-|-18b19-15~--18b19-15~--18b19-15~-|-------15---15---------|
G|-11pb12b11-11b12-12-12/14-|---------------------------------|-----14---14---\6pb7b6-|
D|--------------------------|---------------------------------|-----------------------|
A|--------------------------|---------------------------------|-----------------------|
D|--------------------------|---------------------------------|-----------------------|

e|-------------------------------------------------------------------------|
B|----------15-----------------------15~-12pb13b12-12pb13b12-10pb11-7pb8b7-|
G|-13b14--------12pb13b12----13b14-----------------------------------------|
D|-------------------------------------------------------------------------|
A|-------------------------------------------------------------------------|
D|-------------------------------------------------------------------------|


CHORUS 2 RHYTHM 3:43

e|--------------------------------------------------------------------------------------|
B|--------------------------------------------------------------------------------------|
G|--------------------------------------------------------------------------------------|
D|-----------10-10-----------------------------------------------------------------7--7-|
A|-3-3-------10-10------3/5--5-5/7-7-7/8-8-8-------5b--7---7-6-5-----5h7-7---0-----7--7-|
D|-3-3-3p0---10-10-0--3-3/5--5-5/7-7-7/8-8-8-----8-----7---7-6-5---0-5h7-7---0-----7--7-|

e|-------------------------------------------------------------------------|
B|-------------------------------------------------------------------------|
G|-------------------------------------------------------------------------|
D|--------10-10------------------------------------------------------------|
A|-3-3p0--10-10------3/5--5-5-5-7-7/8-------5b--7---7-6-5-----5-4-3------7-|
D|-3-3p0--10-10---0--3/5--5-5-5-7-7/8-----8-----7---7-6-5---0-5-4-3--3-3-7-|

e|------------------------------------------------------------------|
B|------------------------------------------------------------------|
G|------------------------------------------------------------------|
D|-------------------------p0---7-----------------------------------|
A|---3/5---5-4-3---3-2-1---p0---7---3-3h5---5-4-3--3-2-1---p0-----7-|
D|-0-3/5---5-4-3---3-2-1---p0---7---3-3h5---5-4-3--3-2-1---p0-----7-|

e|----------------------------------------------|
B|----------------------------------------------|
G|----------------------------------------------|
D|---------------------------------7-----p0---5-|
A|-0---3-3h5---5-4-3---------------7-----p0---5-|
D|-0---3-3h5---5-4-3--3-2-1--1p0---7-----p0---5-|


CHORUS 2 LEAD (tremolo)

e|-----------------------------------------------------------------------------------------|
B|-6---tr8---6---tr8-------------------------10--8tr7/15----15------------15---------------|
G|-----------------------------------10tr9---------------------14-----------14-------------|
D|--------------------7tr8--8tr9----------------------------------15tr14------15tr14---tr7-|
A|-----------------------------------------------------------------------------------------|
D|-----------------------------------------------------------------------------------------|

e|-----------------------------------------------|
B|-------------8---11tr10---\5------------8---6/-|
G|-8ph-------------------------------9tr8--------|
D|--------7tr8-----------------------------------|
A|-----------------------------------------------|
D|-----------------------------------------------|

e|------------------------------------------------------------------------------------------|
B|-17tr15--16tr15--14---17tr15--17tr15-16tr15-15-14---17tr15--17tr15--17tr15-14------15-----|
G|--------------------------------------------------------------------------------14---14db-|
D|------------------------------------------------------------------------------------------|
A|------------------------------------------------------------------------------------------|
D|------------------------------------------------------------------------------------------|

(without tremolo)

e|---------------------------------------------------------------------------------------------|
B|-6---b8---6---b8------------------------10--7pb8b7/15----15--------------15------------------|
G|-------------------------------9pb10b9----------------------14-------------14----------------|
D|------------------7b8--8b9-------------------------------------14pb15b14------14pb15b14---\7-|
A|---------------------------------------------------------------------------------------------|
D|---------------------------------------------------------------------------------------------|

e|-------------------------------------------------|
B|------------8---10pb11b10---\5------------8---6/-|
G|-8ph-------------------------------8pb9b8--------|
D|--------7b8--------------------------------------|
A|-------------------------------------------------|
D|-------------------------------------------------|

e|-------------------------------------------------------------------------------------------------------|
B|-15b17b15--15b16b15--14---15b17b16--15b17b15-15b16-15-14---15b17b15--15b17b15--15b17b15-14-------15----|
G|----------------------------------------------------------------------------------------------14---14\-|
D|-------------------------------------------------------------------------------------------------------|
A|-------------------------------------------------------------------------------------------------------|
D|-------------------------------------------------------------------------------------------------------|


Tab legend:

*   harmonic
b   bend
pb  pre bend
h   hammer on
p   pull off
~   vibrato
t   tremolo
ph  pinch harmonic
db  divebomb

Nowhere But You tab

Chris Cornell guitar tabs for Nowhere but you Drop D tuning. Lead parts with and transcribed without tremolo. All rhythm parts.

Almost there ...

Sign in to get your own page with links to favourite songs and more. You are just one click away...

Login with Facebook Login with Google