Guitar Tabs Explorer
Chris Cornell guitar tabs for Nearly forgot my broken heart (Ver. 2)

Nearly Forgot My Broken Heart tab


5 / 5 [1 vote]


Apollonia93Author: Apollonia93

Nearly Forgot My Broken Heart tab by Chris Cornell (Ver. 2)

The guitar tab in standard tuning. Mandolin parts transposed for guitar!

Guitar tabs with lyrics

Print
  • Tuning: Standard tuning
Off of the 2015 album Higher Truth: https://www.youtube.com/watch?v=zpMfZPAc1kg
The mandolin licks throughout the entire song use a technique called alternate picking;
meaning every downstroke is followed by an upstroke and vice versa. So every open A chord diagramAA
string on the mandolin and, conversely, every 5th fret of the high e string on the
guitar is played on an upstroke.

If you would like to see my video lessons, click here for guitar:
https://www.youtube.com/watch?v=Z30SpMLqZ90
and here for mandolin: https://www.youtube.com/watch?v=_thwzEp7bL0


INTRO (mandolin, transposed)

       ^     ^   ^    ^   ^   ^   ^
e|-----5-----5---5----5---5---5---5-|
B|-3h5---5h6---6----7---7---7---7---|
G|----------------------------------| x2
D|----------------------------------|
A chord diagramAA
E chord diagramEE


VERSE (mandolin, transposed)

     ^   ^   ^   ^   ^   ^   ^   ^      ^   ^   ^   ^   ^   ^   ^   ^
e|---5---5---5---5---5---5---5---5-|----5---5---5---5---5---5---5---5-|
B|-3---3---0---0---3---3---3---3---|--3---3---0---0---6---6---5---5---|
G|---------------------------------|----------------------------------|
D|---------------------------------|----------------------------------|
A|---------------------------------|----------------------------------|
E|---------------------------------|----------------------------------|

     ^   ^   ^   ^   ^   ^   ^   ^     ^   ^   ^   ^   ^   ^   ^   ^   ^   ^   ^   ^
e|---5---5---5---5---5---5---5---5-|---5---5---5---5---5---5---5---5---5---5---5---5-|
B|-3---3---0---0---3---3---0---0---|-6---6---0---0---5---5---5---5---5---5---5---5---|
G|---------------------------------|-------------------------------------------------|
D|---------------------------------|-------------------------------------------------|
A|---------------------------------|-------------------------------------------------|
E|---------------------------------|-------------------------------------------------|

     ^   ^   ^   ^   ^   ^   ^   ^      ^   ^   ^   ^   ^   ^   ^   ^
e|---5---5---5---5---5---5---5---5-|----5---5---5---5---5---5---5---5-|
B|-3---3---0---0---3---3---3---3---|--3---3---0---0---6---6---5---5---|
G|---------------------------------|----------------------------------|
D|---------------------------------|----------------------------------|
A|---------------------------------|----------------------------------|
E|---------------------------------|----------------------------------|

     ^   ^   ^   ^   ^   ^   ^   ^     ^   ^   ^   ^   ^   ^   ^   ^
e|---5---5---5---5---5---5---5---5-|---5---5---5---5---5---5---5---5--|
B|-3---3---0---0---3---3---0---0---|-6---6---0---0---5---5---5---5----|
G|---------------------------------|----------------------------------|
D|---------------------------------|----------------------------------|
A|---------------------------------|----------------------------------|
E|---------------------------------|----------------------------------|


VERSE 1 RHYTHM (Guitar kicks in at 0:29)

  Dm chord diagramDmDm  G6 chord diagramG6G6 Dm chord diagramDmDm       Dm chord diagramDmDm  G6 chord diagramG6G6 F chord diagramFF  A chord diagramAA Dm chord diagramDmDm G6 chord diagramG6G6 Dm chord diagramDmDm  G6 chord diagramG6G6 F chord diagramFF  G chord diagramGG  A chord diagramAA
e|-1--0--1----|----1--0--1-----1--0--1--0--1--3----|
B|-3--3--3----|----3--3--1--2--3--3--3--3--1--3--2-|
G|-2--0--2----|----2--0--2--2--2--0--2--0--2--0--2-|
D|-0--0--0----|----0--0--3--2--0--0--0--0--3--0--2-|
A|----2-------|-------2--3--0-----2-----2--3--2--0-|
E|----3-------|-------3--1--------3-----3--1--3----|


CHORUS 1 (mandolin, transposed)

    ^  ^  ^  ^  ^  ^  ^  ^    ^  ^  ^  ^  ^  ^  ^  ^    ^  ^  ^  ^  ^  ^  ^  ^  ^  ^  ^  ^
e|--5--5--5--5--5--5--5--5-|--5--5--5--5--5--5--5--5-|--5--5--5--5--5--5--5--5--5--5--5--5-|
B|-3--3--5--5--6--6--0--0--|-3--3--0--0--6--6--5--5--|-3--3--------------------------------|
G|-------------------------|-------------------------|-------6--6--5--5--4--4--3--3--2--2--|
A|-------------------------|-------------------------|-------------------------------------|
A|-------------------------|-------------------------|-------------------------------------|
E|-------------------------|-------------------------|-------------------------------------|


CHORUS 1 RHYTHM

   Dm chord diagramDmDm A chord diagramAA F chord diagramFF G chord diagramGG Dm chord diagramDmDm G chord diagramGG F chord diagramFF A chord diagramAA Dm chord diagramDmDm Dmmaj7 chord diagramDmmaj7Dmmaj7 Dm7 chord diagramDm7Dm7 G chord diagramGG F chord diagramFF A chord diagramAA Dm chord diagramDmDm   Dm chord diagramDmDm
e|-1----1-3-1--3-1----1----1---1---3-1---1--|---1-|
B|-3--2-1-3-3--3-1-2--3----2---1---3-1-2-3--|---3-|
G|-2--2-2-0-2--0-2-2--2----2---2---0-2-2-2--|---2-|
D|-0--2-3-0-0--0-3-2--0----0---0---0-3-2-0--|-----|
A|----0-3-2----2-3-0---------------2-3-0----|-----|
E|------1-3----3-1-----------------3-1------|-----|


VERSE 2 RHYTHM

  Dm chord diagramDmDm  G6 chord diagramG6G6 Dm chord diagramDmDm       Dm chord diagramDmDm  G6 chord diagramG6G6 F chord diagramFF  A chord diagramAA Dm chord diagramDmDm G6 chord diagramG6G6 Dm chord diagramDmDm  G6 chord diagramG6G6 F chord diagramFF  G chord diagramGG  A chord diagramAA
e|-1--0--1----|----1--0--1-----1--0--1--0--1--3----|
B|-3--3--3----|----3--3--1--2--3--3--3--3--1--3--2-|
G|-2--0--2----|----2--0--2--2--2--0--2--0--2--0--2-|
D|-0--0--0----|----0--0--3--2--0--0--0--0--3--0--2-| x2
A|----2-------|-------2--3--0-----2-----2--3--2--0-|
E|----3-------|-------3--1--------3-----3--1--3----|


CHORUS 2

   Dm chord diagramDmDm A chord diagramAA F chord diagramFF G chord diagramGG Dm chord diagramDmDm G chord diagramGG F chord diagramFF A chord diagramAA Dm chord diagramDmDm Dmmaj7 chord diagramDmmaj7Dmmaj7 Dm7 chord diagramDm7Dm7 G chord diagramGG F chord diagramFF A chord diagramAA C chord diagramCC/G chord diagramGG
e|-1----1-3-1--3-1----1----1---1---3-1---3-|
B|-3--2-1-3-3--3-1-2--3----2---1---3-1-2-5-|
G|-2--2-2-0-2--0-2-2--2----2---2---0-2-2-5-|
D|-0--2-3-0-0--0-3-2--0----0---0---0-3-2-5-|
A|----0-3-2----2-3-0---------------2-3-0-3-|
E|------1-3----3-1-----------------3-1---3-|


BRIDGE 1

  C chord diagramCC/G chord diagramGG F chord diagramFF G chord diagramGG A chord diagramAA C chord diagramCC/G chord diagramGG F chord diagramFF G chord diagramGG     D chord diagramDD C chord diagramCC     G chord diagramGG
e|-3--1-3---3---1-3-| |-2-------3-|
B|-5--1-3-2-5---2-3-| |-3-1-----3-|
G|-5--2-0-2-5---3-0-| |-2-2-----0-|
D|-5--3-0-2-5---3-0-| |-0-0-----0-| x3
A|-3--3-2-0-3---1-2-| |---3-----2-|
E|-3--1-3---3---1-3-| |---------3-|


GUITAR SOLO

e|---------------------|------------------------------|-------------------|--------------------------------|
B|---------------------|------------------------------|-------------------|--------------------------------|
G|--7b-7b-7b-7b-7b-7b\2|7b-7b-7b-7b-7b-7b\2-----------|7b-7b-7b-7b-7b-7b\2|--7b-7b-7b-7b-7b-7b\2-----------|
D|0--------------------|------------------------5-3---|-------------------|0------------------------5-3----|
A|---------------------|--------------------3h5-----5b|-------------------|----------------------3h5---5-3-|
E|---------------------|------------------------------|-------------------|--------------------------------|


RHYTHM

  Dm chord diagramDmDm G6 chord diagramG6G6 Dm chord diagramDmDm G6 chord diagramG6G6 Dm chord diagramDmDm G6 chord diagramG6G6 F chord diagramFF A chord diagramAA
e|-1-0--1--0--1--0--1---|
B|-3-3--3--3--3--3--1-2-|
G|-2-0--2--0--2--0--2-2-|
D|-0-0--0--0--0--0--3-2-| x2
A|---2-----2-----2--3-0-|
E|---3-----3-----3--1---|


BRIDGE 2

  C chord diagramCC/G chord diagramGG F chord diagramFF G chord diagramGG A chord diagramAA C chord diagramCC/G chord diagramGG F chord diagramFF G chord diagramGG       G chord diagramGG
e|-3--1-3---3---1-3---|---3-|
B|-5--1-3-2-5---2-3---|---3-|
G|-5--2-0-2-5---3-0---|---0-|
D|-5--3-0-2-5---3-0---|---0-|
A|-3--3-2-0-3---1-2---|---2-|
E|-3--1-3---3---1-3---|---3-|


CHORUS 3  2:51 (mandolin, transposed)

    ^  ^  ^  ^  ^  ^  ^  ^  ^  ^  ^  ^  ^  ^  ^  ^   ^  ^  ^  ^  ^  ^  ^  ^  ^  ^  ^  ^
e|--5--5--5--5--5--5--5--5--5--5--5--5--5--5--5--5---5--5--5--5--5--5--5--5--5--5--5--5-|
B|-3--3--5--5--6--6--0--0--3--3--0--0--6--6--5--5---3--3--------------------------------|
G|--------------------------------------------------------6--6--5--5--4--4--3--3--2--2--|
A|--------------------------------------------------------------------------------------|
A|--------------------------------------------------------------------------------------|
E|--------------------------------------------------------------------------------------|


RHYTHM GUITAR 2:59                                                   OUTRO

  Dm chord diagramDmDm Dmmaj7 chord diagramDmmaj7Dmmaj7 Dm7 chord diagramDm7Dm7 G chord diagramGG F chord diagramFF A chord diagramAA C chord diagramCC/G chord diagramGG Dm chord diagramDmDm A chord diagramAA F chord diagramFF G chord diagramGG Dm chord diagramDmDm G chord diagramGG F chord diagramFF A chord diagramAA Dm chord diagramDmDm Dmmaj7 chord diagramDmmaj7Dmmaj7 Dm7 chord diagramDm7Dm7  G chord diagramGG F chord diagramFF A chord diagramAA        D chord diagramDD C chord diagramCC     G chord diagramGG
e|-1----1---1---3-1---3---1----1-3-1--3-1----1----1---1----3-1----| |---2-------3-|
B|-3----2---1---3-1-2-5---3--2-1-3-3--3-1-2--3----2---1----3-1-2--| |---3-1-----3-|
G|-2----2---2---0-2-2-5---2--2-2-0-2--0-2-2--2----2---2----0-2-2--| |---2-2-----0-|
D|-0----0---0---0-3-2-5---0--2-3-0-0--0-3-2--0----0---0----0-3-2--| |---0-0-----0-| x6
A|--------------2-3-0-3------0-3-2----2-3-0----------------2-3-0--| |-----3-----2-|
E|--------------3-1---3--------1-3----3-1------------------3-1----| |-----------3-|



Tab legend:

^ Upstroke
h Hammer on
p Pull off
/ Slide up
\ Slide down

Other versions of Nearly Forgot My Broken Heart

Nearly forgot my broken heartChords
Nearly forgot my broken heartTabs
Nearly forgot my broken heart (Ver. 2) - introTabs
Nearly forgot my broken heart (mandolin)Tabs

Comment this song and these guitar tabs

Do you have corrections, comments on the guitar tabs, thoughts about the song or a message to the author? Write them below.