Log in

One click and you are in

Login with Facebook Login with Google

Why sign up and log in

Guitar Tabs Explorer
Chris Cornell guitar chords for Missing (poncier demo)

Guitar chords with lyrics

INTRO (played on bass, transposed for guitar) 0:06

e|----------------|---------------|-------------------------------|
B|----------------|---------------|-------------------------------|
G|----------------|---------------|-------------------------------|
D|----------------|---------------|-------------------------------| x2
A|-1-1-1--3-3-3-3-|-1-1-1-3-3-3-3-|-1-1-1-3-3-3-3-6-6-6-6-6-6-6-6-|
E|----------------|---------------|-------------------------------|

VERSE (guitar kicks in) 0:19


   A chord diagramBb5Bb5    A chord diagramC5C5       A chord diagramBb5Bb5    A chord diagramC5C5       A chord diagramBb5Bb5    A chord diagramC5C5       A chord diagramD#5D#5
e|----------------|----------------|---------------------------------|
B|----------------|----------------|---------------------------------|
G|----------------|----------------|---------------------------------|
D|-3-3-3--5-5-5-5-|-3-3-3--5-5-5-5-|-3-3-3--5-5-5-5--8-8-8-8-8-8-8-8-|
A|-1-1-1--3-3-3-3-|-1-1-1--3-3-3-3-|-1-1-1--3-3-3-3--6-6-6-6-6-6-6-6-|
E|----------------|----------------|---------------------------------|


LEAD GUITAR 0:43, 0:49, 0:55, 1:01


e|-------|
B|-------|
G|-------|
D|-5b6b5-|
A|-------|
E|-------|


INTERLUDE 1:10

  A chord diagramG/AG/A             A chord diagramAsus2Asus2 G#m/A   A chord diagramG/AG/A            A chord diagramA5A5 A chord diagramBbsus4Bbsus4 A chord diagramA5A5 A chord diagramBbsus4Bbsus4 A chord diagramA5A5 A chord diagramBbsus4Bbsus4
e|------------------------|    |---------------------------------------------------|
B|------------------------|    |---------------------------------------------------|
G|-4------4---4--4--4---4-|    |-4-----4---4--4--2--------2--------2---------------|
D|-5-----5---5--5---7---6-| x2 |-5----5---5--5---2---1----2----1---2--1--1-1-1-1-1-|
A|-0----------------0---0-|    |-0---------------0---1----0----1---0--1--1-1-1-1-1-|
E|------------------------|    |---------------------------------------------------|


CHORUS 1:35


   A chord diagramBb5Bb5  A chord diagramC5C5 A chord diagramD#5D#5        A chord diagramBb5Bb5  A chord diagramC5C5  A chord diagramD#5D#5         A chord diagramG5G5   A chord diagramD#5D#5  A chord diagramC#5C#5        A chord diagramG#5G#5
e|-------------------|-------------------|--------------------------------------|
B|-------------------|-------------------|-7-7----------------------------------|
G|-------------------|-------------------|-5-5----------------------------------|
D|-3-3--5--8-8-8-8-8-|-3-3--5--8-8-8-8-8-|------8-8--6-6-6-6-6------------------| x2
A|-1-1--3--6-6-6-6-6-|-1-1--3--6-6-6-6-6-|------6-6--4-4-4-4-4--6-6-6-6-6-6-6-6-|
E|-------------------|-------------------|----------------------4-4-4-4-4-4-4-4-|


REPEAT INTRO x2  2:07


e|----------------|---------------|-------------------------------|
B|----------------|---------------|-------------------------------|
G|----------------|---------------|-------------------------------|
D|----------------|---------------|-------------------------------|
A|-1-1-1--3-3-3-3-|-1-1-1-3-3-3-3-|-1-1-1-3-3-3-3-6-6-6-6-6-6-6-6-|
E|----------------|---------------|-------------------------------|


REPEAT VERSE x2  2:20


   A chord diagramBb5Bb5    A chord diagramC5C5       A chord diagramBb5Bb5    A chord diagramC5C5       A chord diagramBb5Bb5    A chord diagramC5C5       A chord diagramD#5D#5
e|----------------|----------------|---------------------------------|
B|----------------|----------------|---------------------------------|
G|----------------|----------------|---------------------------------|
D|-3-3-3--5-5-5-5-|-3-3-3--5-5-5-5-|-3-3-3--5-5-5-5--8-8-8-8-8-8-8-8-|
A|-1-1-1--3-3-3-3-|-1-1-1--3-3-3-3-|-1-1-1--3-3-3-3--6-6-6-6-6-6-6-6-|
E|----------------|----------------|---------------------------------|


REPEAT CHORUS  2:57


   A chord diagramBb5Bb5  A chord diagramC5C5 A chord diagramD#5D#5        A chord diagramBb5Bb5  A chord diagramC5C5  A chord diagramD#5D#5         A chord diagramG5G5   A chord diagramD#5D#5  A chord diagramC#5C#5        A chord diagramG#5G#5
e|-------------------|-------------------|--------------------------------------|
B|-------------------|-------------------|-7-7----------------------------------|
G|-------------------|-------------------|-5-5----------------------------------|
D|-3-3--5--8-8-8-8-8-|-3-3--5--8-8-8-8-8-|------8-8--6-6-6-6-6------------------|
A|-1-1--3--6-6-6-6-6-|-1-1--3--6-6-6-6-6-|------6-6--4-4-4-4-4--6-6-6-6-6-6-6-6-|
E|-------------------|-------------------|----------------------4-4-4-4-4-4-4-4-|


INTERLUDE 2 RHYTHM  3:30


  A chord diagramG/AG/A             A chord diagramAsus2Asus2 G#m/A   A chord diagramG/AG/A            A chord diagramA5A5 A chord diagramBbsus4Bbsus4 A chord diagramA5A5 A chord diagramBbsus4Bbsus4 A chord diagramA5A5 A chord diagramBbsus4Bbsus4
e|------------------------|    |---------------------------------------------------|
B|------------------------|    |---------------------------------------------------|
G|-4------4---4--4--4---4-|    |-4-----4---4--4--2--------2--------2---------------|
D|-5-----5---5--5---7---6-| x2 |-5----5---5--5---2---1----2----1---2--1--1-1-1-1-1-|
A|-0----------------0---0-|    |-0---------------0---1----0----1---0--1--1-1-1-1-1-|
E|------------------------|    |---------------------------------------------------|


INTERLUDE 2 LEAD GUITAR 3:31


e|------------------------|-----------------------------|------------------------------------|
B|------------------------|-----------------------------|------------------------------------|
G|------10b11b10----------|------10b11b10---------------|------10b11b10------7---b8b7--/10\7-|
D|-7-9------------7-9-12~-|-7-9------------7-9-12b13b12-|-7-9------------7-8-----------------|
A|------------------------|-----------------------------|------------------------------------|
E|------------------------|-----------------------------|------------------------------------|


REPEAT CHORUS x2 3:53


   A chord diagramBb5Bb5  A chord diagramC5C5 A chord diagramD#5D#5        A chord diagramBb5Bb5  A chord diagramC5C5  A chord diagramD#5D#5         A chord diagramG5G5   A chord diagramD#5D#5  A chord diagramC#5C#5        A chord diagramG#5G#5
e|-------------------|-------------------|--------------------------------------|
B|-------------------|-------------------|-7-7----------------------------------|
G|-------------------|-------------------|-5-5----------------------------------|
D|-3-3--5--8-8-8-8-8-|-3-3--5--8-8-8-8-8-|------8-8--6-6-6-6-6------------------|
A|-1-1--3--6-6-6-6-6-|-1-1--3--6-6-6-6-6-|------6-6--4-4-4-4-4--6-6-6-6-6-6-6-6-|
E|-------------------|-------------------|----------------------4-4-4-4-4-4-4-4-|


OUTRO (played on bass, transposed for guitar) 4:27


e|-----------------|
B|-----------------|
G|-----------------|
D|-----------------| x32
A|--------6-6-6-6--|
E|-4-4-4-----------|


4:40 (guitar kicks in)


   A chord diagramG#5G#5    A chord diagramD#5D#5
e|------------------|
B|------------------|
G|------------------|
D|--------8-8-8-8-8-| x24
A|-6-6-6--6-6-6-6-6-|
E|-4-4-4------------|



Tab legend

| b  Bend
| /  Slide up
| \  Slide down
| ~  Vibrato

Other versions of Missing

MissingTabs

Almost there ...

Sign in to get your own page with links to favourite songs and more. You are just one click away...

Login with Facebook Login with Google