Search tabs and chords

Search for song, artist or band

Log in

One click and you are in

Login with Facebook Login with Google

Why sign up and log in

Guitar Tabs Explorer
Chris Cornell guitar tabs for Like suicide (demo)

Guitar tabs with lyrics

Chris played this demo on a 12 string acoustic guitar in the home recording:
https://www.youtube.com/watch?v=GGRhW1fGyiU
There are at least two guitar tracks present. He uses a modified Open G chord diagramGG tuning: DGDGBc.
An electric version would later be re-recorded for Soundgarden`s Superunknown.

If you would like to see my video lesson, click here:
https://www.youtube.com/watch?v=Q5-gcGY8mTQ&t=419s
0:00 INTRO GUITAR 1

c|--------|------------------------------------------|
B|--------|------------------------------------------|
G|--------|------------------------------------------|
D|--------|------------------------------------------|
G|--------|------------------------------------------|
D|-12\----|0-0-0-0-0--10h12-12~-12~-12~-12~-12~-12~\-|


INTRO GUITAR 2 0:02

c|-------0-----0-----0-----0-|    |-------0-----0-----0-|
B|-----0-----0-----0-----0---|    |-----0-----0-----0---|
G|---2-----2-----2-----2-----|    |---2-----2-----2-----|
D|-0-------------------------| x3 |-0-------------------|
G|---------------------------|    |---------------------|
D|---------------------------|    |---------------------|


0:20 VERSE

c|-----------------------------------------|------------------------------|
B|-----------------------------------------|------------------------------|
G|-7-6-6/9-7-7-7--6-6/7-6-6\--2-2-2--4-4-4-|-----5-5-5-5------5-----------|
D|-0-0-0-0-0-0-0--0-0-0-0-0\--0-0-0--0-0-0-|-3/--5-5-5-5--3/--5-5-5-5-5-5-|
G|-7-6-6/9-7-7-7--6-6/7-6-6\--2-2-2--4-4-4-|-0/--0-0-0-0--0/--0-0-0-0-0-0-|
D|---------0-0-0--0-0-0-0-0---0-0-0--3-3-3-|-3/--5-5-5-5--3/--5-5-5-5-5-5-|

0:36 INTERLUDE GUITAR 2        GUITAR 1

c|-------0-----0-----0-|      |--------------------------------------|
B|-----0-----0-----0---|      |--------------------------------------|
G|---2-----2-----2-----|      |--------------------------------------|
D|-0-------------------|      |--------------------------------------|
G|---------------------|      |--------------------------------------|
D|---------------------|      |-0-0-0-0-0-0---10h12-12~-12~-12~-12~\-|


0:40 REPEAT VERSE

0:56 REPEAT INTERLUDE

0:59 PRE-CHORUS GUITAR 2

c|-------------------|-------------------|
B|-------------------|-------------------|
G|-11-12-12h14-12-11-|-17-16h17-16-14-14-|
D|-------------------|-------------------|  x2
G|-------------------|-------------------|
D|-------------------|-------------------|

c|------------------------------------|-------------------|--------------------------------------------|
B|------------------------------------|-------------------|--------------------------------------------|
G|-11-12-12h14-12-11---17-16h17-16-14-|-17-16h17-16-14-14-|-17-16h17-16-14-12-9/11-11-11-9h11-9\7--7-7-|
D|------------------------------------|-------------------|--------------------------------------------|
G|------------------------------------|-------------------|--------------------------------------------|
D|------------------------------------|-------------------|--------------------------------------------|

PRE-CHORUS GUITAR 1 (leads right in from INTERLUDE melody)

c|----------------------------|---------------------------------------|------------------|
B|----------------------------|---------------------------------------|------------------|
G|----------------------------|---------------------------------------|------------------|
D|----------------------------|---------------------------------------|------------------|
G|----------------------------|---------------------------------------|------------------|
D|-12-12-12-12-12~--0-0-0-0-0-|-10h12-12-12-12-12~--0-0-0-0-0-|-10h12-12-12-12~--0-0-0-0-|

c|--------------------|----------------------------|
B|--------------------|----------------------------|
G|--------------------|----------------------------|
D|--------------------|----------------------------|
G|--------------------|----------------------------|
D|-3-3-3-3~--5-5-5-5~-|-0-0-0-0-10h12~-12~-12~-12~-|


1:23 CHORUS

c|---------0-------------------0-------------------------------------------|       |-0-|
B|-------0---0---------------0---0-----------------------------------------|       |-0-|
G|-----0-------0-----------0-------0-------------0----0--------------------|       |-0-|
D|---12----------12------12----------12-------12--------0------------------| x2    |-0-|
G|-10------------------9------------------9/10--------------9/----11-11-11-|       |---|
D|--------------------------------------------------9-------10/---12-12-12-|       |---|


1:43 REPEAT VERSE

2:00 REPEAT INTERLUDE

2:04 REPEAT VERSE

2:20 REPEAT INTERLUDE

2:23 REPEAT PRE-CORUS

2:47 REPEAT CHORUS

3:08 VERSE

c|-----------------------------------------|------------------------------|----------------------|
B|-----------------------------------------|------------------------------|----------------------|
G|-7-6-6/9-7-7-7--6-6/7-6-6\--2-2-2--4-4-4-|-----5-5-5-5------5-----------|-------7-7--------7-7-|
D|-0-0-0-0-0-0-0--0-0-0-0-0\--0-0-0--0-0-0-|-3/--5-5-5-5--3/--5-5-5-5-5-5-|-5/--7-7-7--5/--7-7-7-| x2
G|-7-6-6/9-7-7-7--6-6/7-6-6\--2-2-2--4-4-4-|-0/--0-0-0-0--0/--0-0-0-0-0-0-|-5/--7-7-7--5/--7-7-7-|
D|---------0-0-0--0-0-0-0-0---0-0-0--3-3-3-|-3/--5-5-5-5--3/--5-5-5-5-5-5-|-0---0-0-0--0---0-0-0-|


4:09 BRIDGE GUITAR 2

c|------------------------|---------------------|--------------------------------|
B|------------------------|---------------------|--------------------------------|
G|------------------------|---------------------|--------------------------------|
D|-4-5-5/7-7/10-10-10-10--|-9-7-5-5/10-10-10-10-|-4/5-4-5-5h7-5-4-4-4-4-4h5-4-4--|
G|------------------------|---------------------|--------------------------------|
D|------------------------|---------------------|--------------------------------|

c|-----------------------|---------------------|-------------------------------|
B|-----------------------|---------------------|-------------------------------|
G|-----------------------|---------------------|-------------------------------|
D|-4-5-5/7-7/10-10-10-10-|-9-7-5-5/10-10-10-10-|-4/5-4-5-5h7-5-4-4-4-4-4h5-4-2-|
G|-----------------------|---------------------|-------------------------------|
D|-----------------------|----------------------|-------------------------------|

c|---------------6-6-6-6-6-|-----------7-7-7-7-7-|-9--9--9--9---7-7-7-7--9--9--9--9--9--|
B|-8-8h10-10p8-8-7-7-7-7-7-|-8h10-10p8-8-8-8-8-8-|-10-10-10-10--8-8-8-8--10-10-10-10-10-|
G|-------------------------|---------------------|--------------------------------------|
D|-------------------------|---------------------|--------------------------------------|
G|-------------------------|---------------------|--------------------------------------|
D|-------------------------|---------------------|--------------------------------------|

c|---------------------------|--------------------7-7-7-7-7-|-9--9--9--9--7-7-7-7-9--9--9--9--\-|
B|-8h10-10-10p8--8p7-7h8-7-7-|-8h10-10-10p8-7-7h8-8-8-8-8-8-|-10-10-10-10-8-8-8-8-10-10-10-10-\-|
G|---------------------------|------------------------------|-----------------------------------|
D|---------------------------|------------------------------|-----------------------------------|
G|---------------------------|------------------------------|-----------------------------------|
D|---------------------------|------------------------------|-----------------------------------|

c|----------------------------------21p19-|-------------------------12-12-12-12-|-9--9--9--7-7-7-9--9--9--|
B|-13p12-12-15p13-13-13p12-12-15p13-------|-12-13-13p12-12-15p13-12-13-13-13-13-|-10-10-10-8-8-8-10-10-10-|
G|----------------------------------------|-------------------------------------|-------------------------|
D|----------------------------------------|-------------------------------------|-------------------------|
G|----------------------------------------|-------------------------------------|-------------------------|
D|----------------------------------------|-------------------------------------|-------------------------|

c|----------------------------------21p19-|-------------------------------------|-9--9--9--7-7-7-9--9--9--|
B|-13p12-12-15p13-13-13p12-12-15p13-------|-12-13-13p12-12-15p13-12-15-15-15-15-|-10-10-10-8-8-8-10-10-10-|
G|----------------------------------------|-------------------------------------|-------------------------|
D|----------------------------------------|-------------------------------------|-------------------------|
G|----------------------------------------|-------------------------------------|-------------------------|
D|----------------------------------------|-------------------------------------|-------------------------|

c|-----------------------------------|-----------------------------------|
B|-----------------------------------|-----------------------------------|
G|-----------------------------------|-17-17-17-16-16-14-/17-16-14-12-11-|
D|-9-10-10/12-9-10-9--10-9-9/12-10-9-|-----------------------------------|
G|-----------------------------------|-----------------------------------|
D|-----------------------------------|-----------------------------------|

c|-----------------------------------|----------------------------|
B|-----------------------------------|----------------------------|
G|-----------------------------------|-19-19-19-19-19-19-19-19-19-|
D|-9-10-10/12-9-10-9--10-9-9/12-10-9-|----------------------------|
G|-----------------------------------|----------------------------|
D|-----------------------------------|----------------------------|


BRIDGE GUITAR 1

c|------------------------------------------|    c|---------------|  c|----------------------------------|
B|------------------------------------------|    B|---------------|  B|----------------------------------|
G|------------------------------------------|    G|---------------|  G|----------------------------------|
D|------------------------------------------| x5 D|---------------|  D|----------------------------------| x3
G|-----------5-5-5--------------------------|    G|---------------|  G|----------------------------------|
D|-0-0-0-0-0-------5-5-5-5--0-0-0-0-0-0-0-0-|    D|-5-5-5-0-0-0-0-|  D|-5-5-5-5-5-5-5-5--0-0-0-0-0-0-0-0-|


c|-------------------0---0-0-0-0--0---0-0-0-0---0---0-0-0--0-0-0-0-|      c|-0---0--0--0--0--|
B|-------------------0---0-0-0-0--0---0-0-0-0---0---0-0-0--0-0-0-0-|      B|-0---0--0--0--0--|
G|-------------------0---0-0-0-0--0---0-0-0-0---0---7-7-7--0-7-7-7-|      G|-9/--11-11-11-11-|
D|-3-x-3-x-3-x-3-x---3/--5-5-5-5--3/--5-5-5-5---5/--7-7-7--5/7-7-7-|      D|-0---0--0--0--0--| x4
G|-0-x-0-x-0-x-0-x---0---0-0-0-0--0---0-0-0-0---5/--7-7-7--5/7-7-7-|      G|-9/--11-11-11-11-|
D|-3-x-3-x-3-x-3-x---3/--5-5-5-5--3/--5-5-5-5----------------------|      D|-0------0--0--0--|


5:47 CHORUS 3


OUTRO 6:08

c|-0-------------|
B|------0--------|
G|---0-----------|
D|---------0-0---|
G|-------------0-|
D|---------------|


Tab legend:

~   vibrato
\   slide down
/   slide up
h   hammer on
p   pull off
x   muted strings

Like Suicide (demo) tab

Chris Cornell guitar tabs for Like suicide (demo) The home recording demo. DGDGBc tuning, two guitar tracks.

Almost there ...

Sign in to get your own page with links to favourite songs and more. You are just one click away...

Login with Facebook Login with Google