Search tabs and chords

Browse bands and artists

A B C D E F G H I J K L M N O P Q R S T U V W X Y Z #

Log in

[ Register here | Forgot password ]

Guitar Tabs Explorer
Print

Can't Change Me tab by Chris Cornell (Ver. 3)

Guitar tabs with lyrics

The Euphoria Morning studio version and the Songbook live acoustic version.

Apollonia93Author: Apollonia93

  • Tuning: Standard
  • Capo on 3rd fret
This is how Chris Cornell and Alain Johannes played Can`t Change Me in the studio on
Euphoria Morning: https://www.youtube.com/watch?v=MXlFN5_r0Gw
and how Chris played it live and during his Songbook tour, acoustically:
https://www.youtube.com/watch?v=ecoWjR3fDT0.

All frets and chord names are relative to the capo on the third fret.



STUDIO VERSION INTRO RHYTHM GUITAR 0:00

     E5
g-|---------------------------------|
D-|---------------------------------|
A#|---2--2--2--2--2--2--2--2--2--2--|
C-|--0--0--0--0--0--0--0--0--0--0---|
G-|---------------------------------|
    PM PM PM PM PM PM PM PM PM PM


STUDIO VERSION LEAD GUITAR 1  0:04   LEAD GUITAR 2 0:10

g-|---------------------------------|--------5~------------7~-5-------|
D-|---------------------------------|--5-7-8---8-7-7h8----------8-7~--|
A#|--------2~-------------4-2-------|---------------------------------|
F-|--2-4-5----5-4-4h5----------5-4~-|---------------------------------|
C-|---------------------------------|---------------------------------|
G-|---------------------------------|---------------------------------|

SONGBOOK VERSION INTRO

    E5  Esus2  E5  Esus4  Em    Esus2 Em      Bsus4/E Esus4 Em  Esus2       Em
g-|------------------------------------------------------------------|      |--0--|
D-|------------------------------------------------------------------|      |--0--|
A#|-----------------2-----0-----------0-----------4-----2----0-------|      |--0--|
F-|--2----4----2----2-----2-----4-----2-----------2-----2----2----4--|  x2  |--2--|
C-|--2----2----2----2-----2-----2-----2-----------2-----2----2----2--|      |--2--|
G-|--0----0----0----0-----0-----0-----0-----------0-----0----0----0--|      |--0--|



VERSE 0:16

     E5       Dsus2/E  C#m/E    C/E      E5       Gbb5    Gmaj7 A/E
g-|--------------------------------------------------------------------|
D-|--------------------------------------------------------------------|
A#|-----------------------------------------------------------2-2-2-2--|
F-|--2-2-2-2--2-2-2-2--2-2-2-2--2-2-2-2--2-2-2-2--4-4-4-4--4--2-2-2-2--|   x2
C-|--2-2-2-2--5-5-5-5--4-4-4-4--3-3-3-3--2-2-2-2--3-3-3-3--0--4-4-4-4--|
G-|--0-0-0-0--0-0-0-0--0-0-0-0--0-0-0-0--0-0-0-0--2-2-2-2--3--0-0-0-0--|


PRE CHORUS 0:33

     C/E      B7       G      G/F    C/G     Cm/G
g-|--------------------3-3-3--3-3-3--------------|
D-|--------------------3-3-3--3-3-3--5-5-5-5--4--|
A#|-----------2-2-2-2--0-0-0--0-0-0--5-5-5-5--5--|
F-|--2---2-2--1-1-1-1--0-0-0--0-0-0--5-5-5-5--5--|
C-|--3---3-3--2-2-2-2--2-2-2--2-2-2--3-3-3-3--3--|
G-|--0---0-0-----------3-3-3--1-1-1--3-3-3-3--3--|


CHORUS  0:44

     G        F#m7     A/E      Esus2
g-|--3-3-3-3-----------------------------|
D-|--3-3-3-3-----------------------------|
A#|--0-0-0-0--2-2-2-2--2-2-2-2--4-4-4-4--|
F-|--0-0-0-0--2-2-2-2--2-2-2-2--4-4-4-4--|  x3
C-|--2-2-2-2--0-0-0-0--4-4-4-4--2-2-2-2--|
G-|--3-3-3-3--2-2-2-2--0-0-0-0--0-0-0-0--|

     Am/E     D#m/E    E5       Am/E     D#m/E
g-|-----------------------------------------------|
D-|-----------------------------------------------|
A#|--5-5-5-5--------------------5-5-5-5-----------|
F-|--7-7-7-7--4-4-4-4--2-2-2-2--7-7-7-7--4-4-4-4--|
C-|--0-0-0-0--6-6-6-6--2-2-2-2--0-0-0-0--6-6-6-6--|
G-|--0-0-0-0--0-0-0-0--0-0-0-0--0-0-0-0--0-0-0-0--|


STUDIO VERSION HOOK 1:04

g-|--------------------------------------|
D-|--------------------------------------|
A#|----------2~------------4-2-----------|
F-|--2---4-5--- 5-4-4h5---------5-4~-5~--|
C-|--------------------------------------|
G-|--------------------------------------|


SONGBOOK VERSION HOOK 1:05

    E5   Esus2 E5  Esus4  Em   Esus2  Em    Bsus4/E Esus4   Em  Esus2 Em
g-|---------------------------------------------------------------------|
D-|---------------------------------------------------------------------|
A#|-----------------2-----0-----------0-----------4-----2----0-------0--|
F-|--2----4----2----2-----2-----4-----2-----------2-----2----2----4--2--|
C-|--2----2----2----2-----2-----2-----2-----------2-----2----2----2--2--|
G-|--0----0----0----0-----0-----0-----0-----------0-----0----0----0--0--|


VERSE 1:10

     E5       Dsus2/E  C#m/E    C/E      E5       Gbb5   Gmaj7 A/E
g-|--------------------------------------------------------------------|
D-|--------------------------------------------------------------------|
A#|-----------------------------------------------------------2-2-2-2--|
F-|--2-2-2-2--2-2-2-2--2-2-2-2--2-2-2-2--2-2-2-2--4-4-4-4--4--2-2-2-2--|   x2
C-|--2-2-2-2--5-5-5-5--4-4-4-4--3-3-3-3--2-2-2-2--3-3-3-3--0--4-4-4-4--|
G-|--0-0-0-0--0-0-0-0--0-0-0-0--0-0-0-0--0-0-0-0--2-2-2-2--3--0-0-0-0--|


PRE CHORUS 1:27

     C/E     B7        G      G/F    C/G     Cm/G
g-|--------------------3-3-3--3-3-3--------------|
D-|--------------------3-3-3--3-3-3--5-5-5-5--4--|
A#|-----------2-2-2-2--0-0-0--0-0-0--5-5-5-5--5--|
F-|--2---2-2--1-1-1-1--0-0-0--0-0-0--5-5-5-5--5--|
C-|--3---3-3--2-2-2-2--2-2-2--2-2-2--3-3-3-3--3--|
G-|--0---0-0-----------3-3-3--1-1-1--3-3-3-3--3--|


CHORUS 1:38

     G        F#m7     A/E      Esus2
g-|--3-3-3-3-----------------------------|
D-|--3-3-3-3-----------------------------|
A#|--0-0-0-0--2-2-2-2--2-2-2-2--4-4-4-4--|
F-|--0-0-0-0--2-2-2-2--2-2-2-2--4-4-4-4--|  x3
C-|--2-2-2-2--0-0-0-0--4-4-4-4--2-2-2-2--|
G-|--3-3-3-3--2-2-2-2--0-0-0-0--0-0-0-0--|

     Am/E     D#m/E     E5       Am/E             D#m/E
g-|---------------------------------------------------------------|
D-|---------------------------------------------------------------|
A#|--5-5-5-5--------------------5-5-5-5-5-5-5-5-------------------|
F-|--7-7-7-7--4-4-4-4--2-2-2-2--7-7-7-7-7-7-7-7--4-4-4-4-4-4-4-4--|
C-|--0-0-0-0--6-6-6-6--2-2-2-2--0-0-0-0-0-0-0-0--6-6-6-6-6-6-6-6--|
G-|--0-0-0-0--0-0-0-0--0-0-0-0--0-0-0-0-0-0-0-0--0-0-0-0-0-0-0-0--|


BRIDGE 2:01

     C/G      Cb5/Gb   Em         Em/F#m Em11 G        G7               Cb5/Gb   B7sus4   B7
g-|-----------0-0-0-0-------------------------3-3-3-3-------------------0-0-0-0---------------|
D-|--5-5-5-5--5-5-5-5-------------------------3-3-3-3-------------------5-5-5-5--5-5-5-5---4--|
A#|--5-5-5-5--x-x-x-x--0-0-0-0----0-0-0-0--0--0-0-0-0--4-4-4-4-4-4-4-4--x-x-x-x--2-2-2-2---2--|
F-|--5-5-5-5--4-4-4-4--2-2-2-2----2-2-2-2--0--0-0-0-0--3-3-3-3-3-3-3-3--4-4-4-4--4-4-4-4---4--|
C-|--3-3-3-3--3-3-3-3--2-2-2-2----2-2-2-2--0--2-2-2-2--2-2-2-2-2-2-2-2--3-3-3-3--2-2-2-2---2--|
G-|--3-3-3-3--2-2-2-2--0-0-0-0--0h2-2-2-2--0--3-3-3-3--3-3-3-3-3-3-3-3--2-2-2-2---------------|


STUDIO VERSION HOOK LEAD GUITAR 2:20     2:28

g-|-------------------------------------|--------------------------------------|
D-|-------------------------------------|--------------------------------------|
A#|--------2------------4-2----------2--|--------------------------------------|
F-|--2-4-5---5-4-4h5~--------5-4~-5--2--|--------------------------------------|
C-|----------------------------------0--|--------0----------------2-0-------0--|
G-|-------------------------------------|--0-2-3---3-2-2h3~---0-------3-2-3----|


SONGBOOK VERSION HOOK

    E5   Esus2 E5  Esus4  Em   Esus2  Em    Bsus4/E Esus4    E Esus2 Em A/E
g-|----------------------------------------------------------------------|
D-|----------------------------------------------------------------------|
A#|-----------------2-----0-----------0-----------4-----2----0-------0--2|
F-|--2----4----2----2-----2-----4-----2-----------2-----2----2----4--2--2|
C-|--2----2----2----2-----2-----2-----2-----------2-----2----2----2--2--4|
G-|--0----0----0----0-----0-----0-----0-----------0-----0----0----0--0--0|

     E5       Em       Dsus2/E  C/E      E5       Gb5    Gb5/Ab Aadd9/E
g-|-------------------------------------------------------------0-0-0-0--|
D-|-------------------------------------------------------------0-0-0-0--|
A#|-------------------------------------------------------------2-2-2-2--|
F-|--2-2-2-2--5-5-5-5--4-4-4-4--3-3-3-3--2-2-2-2--4-4-4-4--4-4--2-2-2-2--|
C-|--2-2-2-2--2-2-2-2--2-2-2-2--2-2-2-2--2-2-2-2--3-3-3-3--0-0--4-4-4-4--|
G-|--0-0-0-0--0-0-0-0--0-0-0-0--0-0-0-0--0-0-0-0--2-2-2-2--3-3--0-0-0-0--|


PRE CHORUS 2:37

     C/E     B7        G      G/F    C/G     Cm/G
g-|--------------------3-3-3--3-3-3--------------|
D-|--------------------3-3-3--3-3-3--5-5-5-5--4--|
A#|-----------2-2-2-2--0-0-0--0-0-0--5-5-5-5--5--|
F-|--2---2-2--1-1-1-1--0-0-0--0-0-0--5-5-5-5--5--|
C-|--3---3-3--2-2-2-2--2-2-2--2-2-2--3-3-3-3--3--|
G-|--0---0-0-----------3-3-3--1-1-1--3-3-3-3--3--|


CHORUS 2:49

     G        F#m7     A/E      Esus2
g-|--3-3-3-3-----------------------------|
D-|--3-3-3-3-----------------------------|
A#|--0-0-0-0--2-2-2-2--2-2-2-2--4-4-4-4--|
F-|--0-0-0-0--2-2-2-2--2-2-2-2--4-4-4-4--|  x3
C-|--2-2-2-2--0-0-0-0--4-4-4-4--2-2-2-2--|
G-|--3-3-3-3--2-2-2-2--0-0-0-0--0-0-0-0--|

     Am/E     D#m/E    E5       Am/E             D#m/E                  Em
g-|------------------------------------------------------------------------|
D-|--------------------5-5-5-5---------------------------------------------|
A#|--5-5-5-5-----------5-5-5-5--5-5-5-5-5-5-5-5-------------------------0--|
F-|--7-7-7-7--4-4-4-4--5-5-5-5--7-7-7-7-7-7-7-7--4-4-4-4-4-4-4-4--------2--|
C-|--0-0-0-0--6-6-6-6--3-3-3-3--0-0-0-0-0-0-0-0--6-6-6-6-6-6-6-6--------2--|
G-|--0-0-0-0--0-0-0-0--3-3-3-3--0-0-0-0-0-0-0-0--0-0-0-0-0-0-0-0--------0--|
                                                                        ^

| ^  Upstroke
| PM palm mute
| h  hammer-on
| ~  vibrato
| x  muted

Other versions of Can't Change Me

Can't change meTabs
Can't change me acousticTabs

Comments