Log in

One click and you are in

Login with Facebook Login with Google

Why sign up and log in

Guitar Tabs Explorer
The Copyrights guitar chords for Slider

Guitar chords with lyrics

Tuning: Standard (E A D G B E)


Intro:
          A chord diagramD MajorD                         A chord diagramA majorA             A chord diagramG MajorG
e|-----------------------------------------------------------------|
B|-----------------------------------------------------------------|
G|-----------------------------------------------------------------|
D|-----------------------------------------------------------------|
A|--------9---s7-7-s5---5--5--5-5---0---0-0---0-0---5-5-----5---7--|
E|--0---------------------------------------------3-------3---3----|

   A chord diagramD MajorD           A chord diagramA#A#
e|-----------------|
B|-----------------|
G|-7-7-7-7-7-7-----|
D|-7-7-7-7-7-7-----|
A|-5-5-5-5-5-5-5-5-|
E|-------------6-6-|


Verse 1:
A chord diagramD MajorD                         A chord diagramA majorA
Well, well, well, are you strong enough?
        A chord diagramG MajorG                        A chord diagramD MajorD
Are you wrong enough to let it slide?
                           A chord diagramA majorA
Is your head buried in the sand enough?
        A chord diagramG MajorG
Are you blind enough to let it slide?


Outro:
A chord diagramD MajorD
I'm almost there

I'm almost there
A chord diagramA majorA
I'm almost there
A chord diagramG MajorG
Don't let me let it slide
A chord diagramD MajorD                A chord diagramA#A#
I'm almost there
A chord diagramD MajorD
I'm almost there
A chord diagramA majorA
I'm almost there
A chord diagramG MajorG
Don't let me let it slide
A chord diagramD MajorD A chord diagramA#A# A chord diagramD MajorD

Almost there ...

Sign in to get your own page with links to favourite songs and more. You are just one click away...

Login with Facebook Login with Google