Log in

One click and you are in

Login with Facebook Login with Google

Why sign up and log in

Guitar Tabs Explorer
Connie Constance bass tabs for Costa del margate

Costa Del Margate bass tab by Connie Constance

Connie Constance bass tabs for Costa del margate

Bass tabs

Intro:

G|---------------------------------------------------------------------------|
D|---------------------------------------------------------------------------|
A|------------------------8-8-8-8-8-----------------------6-6-6-6-6----------|
E|--9-9-9-9-9-9-9-9-9-9-9-----------9-9-9-9-9-9-9-9-9-9-9--------------------|

G|---------------------------------------------------------------------------|
D|---------------------------------------------------------------------------|
A|--------------------------------6-----------------------------------6------|
E|--6-6-6-6-6-6-6-6-6-6-6-4-6-4-6---6-4-6-6-6-6-6-6-6-6-6-6-6-4-6-4-6---6-4--|
x2
Verse 1:

G|---------------------------------------------------------------------------|
D|---------------------------------------------------------------------------|
A|------------------------8-8-8-8-8-----------------------8-8-8-8-8----------|
E|--9-9-9-9-9-9-9-9-9-9-9-----------9-9-9-9-9-9-9-9-9-9-9--------------------|

G|---------------------------------------------------------------------------|
D|---------------------------------------------------------------------------|
A|--------------------------------6-----------------------------------6------|
E|--6-6-6-6-6-6-6-6-6-6-6-4-6-4-6---6-4-6-6-6-6-6-6-6-6-6-6-6-4-6-4-6---6-4--|

x4

Chorus:

G|---------------------------------------------------------------------------|
D|---------------------------------------------------------------------------|
A|------------------------8-8-8-8-8-----------------------6-6-6-6-6----------|
E|--9-9-9-9-9-9-9-9-9-9-9-----------9-9-9-9-9-9-9-9-9-9-9--------------------|

G|---------------------------------------------------------------------------|
D|---------------------------------------------------------------------------|
A|--------------------------------6-----------------------------------6------|
E|--6-6-6-6-6-6-6-6-6-6-6-4-6-4-6---6-4-6-6-6-6-6-6-6-6-6-6-6-4-6-4-6---6-4--|

Verse 2:

G|---------------------------------------------------------------------------|
D|---------------------------------------------------------------------------|
A|------------------------8-8-8-8-8-----------------------8-8-8-8-8----------|
E|--9-9-9-9-9-9-9-9-9-9-9-----------9-9-9-9-9-9-9-9-9-9-9--------------------|

G|---------------------------------------------------------------------------|
D|---------------------------------------------------------------------------|
A|--------------------------------6-----------------------------------6------|
E|--6-6-6-6-6-6-6-6-6-6-6-4-6-4-6---6-4-6-6-6-6-6-6-6-6-6-6-6-4-6-4-6---6-4--|

x4


Chorus:

G|---------------------------------------------------------------------------|
D|---------------------------------------------------------------------------|
A|------------------------8-8-8-8-8-----------------------6-6-6-6-6----------|
E|--9-9-9-9-9-9-9-9-9-9-9-----------9-9-9-9-9-9-9-9-9-9-9--------------------|

G|---------------------------------------------------------------------------|
D|---------------------------------------------------------------------------|
A|--------------------------------6-----------------------------------6------|
E|--6-6-6-6-6-6-6-6-6-6-6-4-6-4-6---6-4-6-6-6-6-6-6-6-6-6-6-6-4-6-4-6---6-4--|


Outro:

G|---------------------------------------------------------------------------|
D|---------------------------------------------------------------------------|
A|--------11-----8----------11-----8---------------------------6-------------|
E|--9--------------6--9---------------4--6---------4--6--4--6----6--4--6-----|

x4

Almost there ...

Sign in to get your own page with links to favourite songs and more. You are just one click away...

Login with Facebook Login with Google