Log in

One click and you are in

Login with Facebook Login with Google

Why sign up and log in

Guitar Tabs Explorer
Conan Gray chords for Can we be friends ukulele

Can We Be Friends Ukulele chords by Conan Gray

Conan Gray chords for Can we be friends ukulele

Guitar chords

Tuning: G C E A (G C E A)


Verse 1:

   G

G|-------------------------------------------------------------|
C|-----------------------------------------------------0-------|
E|-3--3---3---3--5----3------1-----0----1----0--1---0----------|
A|-------------------------------------------------------------|
 Can you be my best friend? We'll hang out every weekend.

G|---------------------------------------------------------------|
C|-4--4--2---0--2----4-----0----2---5--7----5----4--4------------|
E|---------------------------------------------------------------|
A|---------------------------------------------------------------|
 Go driving in the night, stare at people that we like.

G|-------------------------------------------------------------|
C|--------------------------------------------------------0----|
E|-3----3----3--3---5----3------1----0----1---0---1---0--------|
A|-------------------------------------------------------------|
 Could you be my best friend? I'll tell you all my secrets

G|---------------------------------------------5---4----4------|
C|-4-----4---4--4---2----4-----0----2--5---7-------------------|
E|-------------------------------------------------------------|
A|-------------------------------------------------------------|
 I'll tell you all the times that I wish that I could die


Chorus:

G|----------------------------------------------------------|
C|----------------------------------------------------------|
E|-3--3--7-7-7-7---7----7-----------------------------------|
A|---------------------------3----3-----5---3---7-----------|
 And if anybody fucks with you, they fuck with me

G|-------------------------------------------------------------|
C|-------------------------------------------------------------|
E|-3---3-7-7-7-7---7----7--------------------------------------|
A|----------------------------3---3------5---3-----7-----3-----|
 And if anybody fucks with you, I'll knock their teeth out


Outro:

G|-----------------------------------------------------|
C|-----------------------------------------------------|
E|------------------------------3--5--3---------3------|
A|--5----5---5--7--5-----3----------------3-0----------|
 Could you be my best friend? Can we be friends?

G|-------------------------------------------------------|
C|-------------------------------------------------------|
E|------------------------------3---5-3----8-------------|
A|-5-----5---5--7--5-----3-------------------------------|
 Could you be my best friend? Can we be friends?

Almost there ...

Sign in to get your own page with links to favourite songs and more. You are just one click away...

Login with Facebook Login with Google