Log in

One click and you are in

Login with Facebook Login with Google

Why sign up and log in

Guitar Tabs Explorer
The Comsat Angels bass tabs for I'm falling

Bass tabs

Tuning: Standard tuning


Tabbed by: bassm99
E-mail: alanmatthews1966@yahoo.co.uk
Tuning: E, A, D, G

Bass Starts 0:09


Intro: (Play 4 Times)

G|--------------------------------------------------------------------------|
D|--------------------------------------------------------------------------|
A|--0-2---------------------------------------------------------------------|
E|-------5-3--3-0-----------------------------------------------------------|


Verse: (Play 8 Times)

G|--------------------------------------------------------------------------|
D|--------------------------------------------------------------------------|
A|--0-2---------------------------------------------------------------------|
E|-------5-3--3-0-----------------------------------------------------------|


Chorus: (Play 4 Times)

G|--------------------------------------------------------------------------|
D|--------------------------------------------------------------------------|
A|--0-2---------------------------------------------------------------------|
E|-------5-3--3-0-----------------------------------------------------------|

Pre Verse: (Play Twice)

G|--------------------------------------------------------------------------|
D|--------------------------------------------------------------------------|
A|--0-2---------------------------------------------------------------------|
E|-------5-3--3-0-----------------------------------------------------------|

Repeat Verse: (Play Twice)

Bridge:

G|------------4-------------------------------------------------------------|
D|-----------------4-0------------------------------------------------------|
A|--0-2-(x4)----2-------5-0-------------------------------------------------|
E|---------------------------12\--0-0-0-0-----------------------------------|

Repeat Pre Verse:

Repeat Verse: (Play 4 Times)

Repeat Chorus: (Play 4 Times)

Repeat Intro: (Play Twice)


Bridge:

G|------------4-------------------------------4-----------------------------|
D|-----------------4-0-----------------------------4-0----------------------|
A|--0-2-(x4)----2-------5-0---------0-2-(x4)----2-------5-0-----------------|
E|---------------------------00-00---------------------------12\--0-0-0-0---|

Repeat Chorus: (Play 10 Times) (Fades Out)

End: (Fades Out)

G|--------------------------------------------------------------------------|
D|--------------------------------------------------------------------------|
A|--0-2---------------------------------------------------------------------|
E|--------------------------------------------------------------------------|

I'm Falling bass tab

The Comsat Angels bass tabs for I'm falling "I`m Falling" from the album "7 Day Weekend" (1985).

Written by The Comsat Angels.

Almost there ...

Sign in to get your own page with links to favourite songs and more. You are just one click away...

Login with Facebook Login with Google