Log in

One click and you are in

Login with Facebook Login with Google

Why sign up and log in

Guitar Tabs Explorer
Luke Combs bass tabs for 1 2 many

Bass tabs

Tuning: Drop D (D A D G)


Key = F#

Intro: (after 1 measure of drums/gtr only)

G|----------------|----------------|----------------|----------------|
D|----------------|----------------|----------------|----------------|
A|----------------|----------------|----------------|----------------|
D|4-4-4-4-4-4-4-4-|4-4-4-4-4-4-4-4-|4-4-4-4-4-4-4-4-|4-4-4-4-4-1-2-3-|


Verse 1: (0:10)

G|----------------|----------------|----------------|----------------|
D|----------------|----------------|----------------|----------------|
A|----------------|----------------|----------------|--------------1-|
D|4-4-4-4-4-4-4-4-|4-4-4-4-4-4-4-4-|4-4-4-4-4-4-4-4-|4-4-4-4-4-4-4---|

G|----------------|----------------|----------------|----------------|
D|----------------|----------------|----------------|----------------|
A|2-2-2-2-2-2-2-2-|2-2-2-2-2-2-2-1-|----------------|--------------2-|
D|----------------|----------------|4-4-4-4-4-4-4-4-|4-4-4-4-4-4-4---|

G|----------------|----------------|----------------|----------------|
D|----------------|----------------|----------------|----------------|
A|4-4-4-4-4-4-4-4-|4-4-4-4-4-4-4-4-|----------------|-----rest:-----|
D|----------------|----------------|4-\-------------|----------------|

Chorus 1: (0:29)

G|----------------|----------------|----------------|----------------|
D|----------------|----------------|----------------|----------------|
A|2-2-2-2-2-2-2-2-|4-4-4-4-4-4-4-4-|----------------|----------------|
D|----------------|----------------|4-4-4-4-3-3-3-3-|1-1-1-1-1-1-1-1-|

G|----------------|----------------|----------------|----------------|
D|----------------|----------------|----------------|----------------|
A|2-2-2-2-2-2-2-2-|4-4-4-4-4-4-4-4-|----------------|------------1-1-|
D|----------------|----------------|4-4-4-4-4-4-4-4-|4-4-5-5-6-6-----|

G|----------------|----------------|----------------|----------------|
D|----------------|----------------|----------------|----------------|
A|2-2-2-2-2-2-2-2-|4-4-4-4-4-4-4-4-|----------------|----------------|
D|----------------|----------------|4-4-4-4-3-3-3-3-|1-1-1-1-1-1-1-1-|

G|----------------|----------------|----------------|----------------|
D|----------------|----------------|----------------|----------------|
A|2-2-2-2-2-2-2-2-|4-4-4-4-4-4-4-4-|2---------------|4---------------|
D|----------------|----------------|----------------|----------------|

G|----------------|----------------|
D|----------------|----------------|
A|----------------|----------------|
D|4-4-4-4-4-4-4-4-|4-4-4-4-4-4-4-1-|


Verse 2: (0:58)

G|----------------|----------------|----------------|----------------|
D|----------------|----------------|----------------|----------------|
A|----------------|----------------|----------------|--------------1-|
D|4-4-4-4-4-4-4-4-|4-4-4-4-4-4-4-4-|4-4-4-4-4-4-4-4-|4-4-4-4-4-4-4---|

G|----------------|----------------|----------------|----------------|
D|----------------|----------------|----------------|----------------|
A|2-2-2-2-2-2-2-2-|2-2-2-2-2-2-2-1-|----------------|--------------2-|
D|----------------|----------------|4-4-4-4-4-4-4-4-|4-4-4-4-4-4-4---|

G|----------------|----------------|----------------|----------------|
D|----------------|----------------|----------------|----------------|
A|4-4-4-4-4-4-4-4-|4-4-4-4-4-4-4-4-|----------------|-----rest:-----|
D|----------------|----------------|4-\-------------|----------------|


Chorus 2: (1:18)

G|----------------|----------------|----------------|----------------|
D|----------------|----------------|----------------|----------------|
A|2-2-2-2-2-2-2-2-|4-4-4-4-4-4-4-4-|----------------|----------------|
D|----------------|----------------|4-4-4-4-3-3-3-3-|1-1-1-1-1-1-1-1-|

G|----------------|----------------|----------------|----------------|
D|----------------|----------------|----------------|----------------|
A|2-2-2-2-2-2-2-2-|4-4-4-4-4-4-4-4-|----------------|------------1-1-|
D|----------------|----------------|4-4-4-4-4-4-4-4-|4-4-5-5-6-6-----|

G|----------------|----------------|----------------|----------------|
D|----------------|----------------|----------------|----------------|
A|2-2-2-2-2-2-2-2-|4-4-4-4-4-4-4-4-|----------------|----------------|
D|----------------|----------------|4-4-4-4-3-3-3-3-|1-1-1-1-1-1-1-1-|

G|----------------|----------------|----------------|----------------|
D|----------------|----------------|----------------|----------------|
A|2-2-2-2-2-2-2-2-|4-4-4-4-4-4-4-4-|2---------------|4-4-4-4-4-4-4-4-|
D|----------------|----------------|----------------|----------------|

G|----------------|----------------|
D|----------------|----------------|
A|----------------|------------1-1-|
D|4-4-4-4-4-4-4-4-|4-4-5-5-6-6-----|


Guitar Solo: (1:47)

G|----------------|----------------|----------------|----------------|
D|----------------|----------------|----------------|----------------|
A|2-2-2-2-2-2-2-2-|4-4-4-4-4-4-4-4-|----------------|------------1-1-|
D|----------------|----------------|4-4-4-4-3-3-3-3-|1-1-3-3-4-4-----|

G|----------------|----------------|----------------|----------------|
D|----------------|----------------|----------------|----------------|
A|2-2-2-2-2-2-2-2-|4-4-4-4-4-4-4-4-|----------------|------------1-1-|
D|----------------|----------------|4-4-4-4-4-4-4-4-|4-4-5-5-6-6-----|


Bridge: (2:00) "Now I've never been..."

G|----------------|----------------|----------------|----------------|
D|----------------|----------------|----------------|----------------|
A|2-2-2-2-2-2-2-2-|4-4-4-4-4-4-4-4-|----------------|----------------|
D|----------------|----------------|4-4-4-4-3-3-3-3-|1-1-1-1-1-1-1-1-|

G|----------------|----------------|----------------|----------------|
D|----------------|----------------|----------------|----------------|
A|2-2-2-2-2-2-2-2-|2-2-2-2-2---1-2-|4---------------|(4)-------------|
D|----------------|----------4-----|----------------|----------------|

G|----------------|----------------|
D|----------------|----------------|
A|(4)-------------|(4)-\-----------|
D|----------------|----------------|


Outro: (2:16)

G|----------------|----------------|----------------|----------------|
D|----------------|----------------|----------------|----------------|
A|-----rest:-----|-----rest:-----|-----rest:-----|--------------1-|
D|----------------|----------------|----------------|----------------|

G|----------------|----------------|----------------|----------------|
D|----------------|----------------|----------------|----------------|
A|2-----------1-2-|4---------------|----------------|------------1-1-|
D|----------------|----------------|4-4-4-4-4-4-4-4-|4-4-5-5-6-6-----|

G|----------------|----------------|----------------|----------------|
D|----------------|----------------|----------------|----------------|
A|2-2-2-2-2-2-2-2-|4-4-4-4-4-4-4-4-|----------------|------------1-1-|
D|----------------|----------------|4-4-4-4-3-3-3-3-|1-1-3-3-4-4-----|

G|----------------|----------------|----------------|----------------|
D|----------------|----------------|----------------|----------------|
A|2-2-2-2-2-2-2-2-|4-4-4-4-4-4-4-1-|2-2-2-2-2---1-2-|4-4-4-4-4-4-4-4-|
D|----------------|----------------|----------4-----|----------------|

G|----------------|----------------|----------------|----------------|
D|----------------|----------------|----------------|----------------|
A|----------------|------------1-1-|2---------------|4-\-------------|
D|4-4-4-4-4-4-4-4-|4-4-5-5-6-6-----|----------------|----------------|

G|----------------|----------------|----------------|----------------|
D|----------------|----------------|----------------|----------------|
A|----------------|----------------|----------------|----------------|
D|4-4-4-4-4-4-4-4-|4-4---1---4-----|(4)-------------|(4)-------------|


************************************

| \  Slide down
| (n) Ghost note


************************************

Almost there ...

Sign in to get your own page with links to favourite songs and more. You are just one click away...

Login with Facebook Login with Google