Log in

One click and you are in

Login with Facebook Login with Google

Why sign up and log in

Guitar Tabs Explorer
Comadre tabs for The trials

Guitar tabs

Band: Comadre
Album: Songs about the man
Genre: Screamo
Tab: Brecht.pbbfm@gmail.com
A chord diagramE MajorE||-----------------------------|----------------------------|
A chord diagramBB||-----------------------------|----------------------------|
A chord diagramG+G||-----------------------------|----------------------------|
A chord diagramD MajorD||--0--0--0---0---0---0--0-----|--0--0--0---0---0--0--0-----|
A chord diagramA augmentedA||--8--8--8--10--10--10--8-----|--8--8--8--10--10--8--7-----|
A chord diagramE MajorE||-----------------------------|----------------------------|
PM...........................................................

|-----------------------------|---------------------------|
|-----------------------------|---------------------------|
|-----------------------------|---------------------------|
|--0--0--0---0---0---0--0-----|--0--0--0---0--0-----------|
|--8--8--8--10--10--10--8-----|--8--8--8--10--7-----------| 4times as a whole
|-----------------------------|---------------------------|
PM........................................................


|-----------------------------------------|
|-----------------------------------------|
|--10-10-10-10-10-10-10---9-9-9-9-9-9-9---|
|-----------------------------------------|
|---8--8--8--8--8--8--8---7-7-7-7-7-7-7---|
|-----------------------------------------|

------------------------------------------------|
------------------------------------------------|
--12-12-12-12-12-12-12---14-14-14-14-14-14-14---|
------------------------------------------------|
--10-10-10-10-10-10-10---12-12-12-12-12-12-12---| 2 times as a whole
------------------------------------------------|

----------------------------------|
----------------------------------|
--8-8-7-7-8-8-7-7-8-8-7-7---------|
----------------------------Break-|4times Last time add a natural harmonic
--6-6-5-5-6-6-5-5-6-6-5-5---------|on the G-string, 5th fret.
----------------------------------|

----------------------------------|
----------------------------------|
--8-8-8-8-8-8-8-8-7-7-7-7-7-7-7-7-|
----------------------------------|
--6-6-6-6-6-6-6-6-5-5-5-5-5-5-5-5-|
----------------------------------|


--------------------------------------------------|
--------------------------------------------------|
--10-10-10-10-10-10-10-10-12-12-12-12-10-10-10-10-|
--------------------------------------------------| 2times as a whole then
---8--8--8--8--8--8--8--8-10-10-10-10--8--8--8--8-|
--------------------------------------------------|

|-----------------------------|
|-----------------------------|
|-----------------------------|
|--10----9----12----10----2---|
|--10----9----12----10----2---|
|---8----7----10-----8----0---|

----------------------------------|--------------------------|
---0---0---0---0---0---0---0---0--|--0--0--0--0--0--0--0--0--|
--10--10--10--10--10--10--10--10--|--9--9--9--9--9--9--9--9--|
----------------------------------|--------------------------|
----------------------------------|--------------------------|
----------------------------------|--------------------------|
PM...........................................................

----------------------------------|----------------------------------|
---0---0---0---0---0---0---0---0--|---0---0---0---0---0---0---0---0--|
--12--12--12--12--12--12--12--12--|--14--14--14--14--14--14--14--14--|
----------------------------------|----------------------------------|
----------------------------------|----------------------------------|last note rings
----------------------------------|----------------------------------|
PM...................................................................

From here on it's played clean.

|-----------------------|-----------------------|
|-----------------------|-----------------------|
|-----------3-----------|-----------2-----------|
|-----3-----------------|-----3-----------------|2times then
|--1-----1--------------|--1-----1--------------|
|-----------------------|-----------------------|


---------------|
---------------|
--2/52--------|
---------------|
---------------|
---------------|


------------------------|------------------------|
------------------------|------------------------|
-----------3------------|-----------3------------|
-----3-------------3----|-----3-------------3----|
--1-----1-------1-------|--1-----1-------1-------|Play this quite a while
------------------------|------------------------|


|--------------------------|--------------------------|
|--------------------------|--------------------------|
|--3--3--3--3--3--3--3--3--|--3--3--3--3--3--3--3--3--|
|--3--3--3--3--3--3--3--3--|--3--3--3--3--3--3--3--3--|
|--1--1--1--1--1--1--1--1--|--1--1--1--1--1--1--1--1--|
|--------------------------|--------------------------|

--------------------------|--------------------------||
--------------------------|--------------------------||
--2--2--2--2--2--2--2--2--|--2--2--2--2--2--2--2--2--||
--3--3--3--3--3--3--3--3--|--3--3--3--3--3--3--3--3--||
--1--1--1--1--1--1--1--1--|--1--1--1--1--1--1--1--1--||
--------------------------|--------------------------||

That's about it. Clean part I'm not really sure whether it's correct, but the other
should be really close.

Almost there ...

Sign in to get your own page with links to favourite songs and more. You are just one click away...

Login with Facebook Login with Google