Log in

One click and you are in

Login with Facebook Login with Google

Why sign up and log in

Guitar Tabs Explorer
Coma Cinema bass tabs for Caroline please kill me

Caroline Please Kill Me bass tab by Coma Cinema

Coma Cinema bass tabs for Caroline please kill me

Bass tabs

Tuning: Standard (E A D G)

Key: A

Difficulty: Novice
Intro:

no bass


Verse/chorus:

G|------------------------|
D|-------4-4----0-0-------|
A|0-0------------------0-0| x6
E|------------------------|

"she's so over it":

G|----------------------|
D|2-2-2-2(x4)0-0-0-0(x4)|
A|----------------------|
E|----------------------|


Verse/chorus:

G|------------------------|
D|-------4-4----0-0-------|
A|0-0------------------0-0| x6
E|------------------------|

"she's so over it":
G|----------------------|
D|2-2-2-2(x4)0-0-0-0(x4)|
A|----------------------|
E|----------------------|


Outro:

I'm not super sure on the timing here but listen to the track and you'll get it

G|-------------------|
D|------0--4-4-4-4-4-|
A|0-0----------------| x4
E|-------------------|

Almost there ...

Sign in to get your own page with links to favourite songs and more. You are just one click away...

Login with Facebook Login with Google