Log in

One click and you are in

Login with Facebook Login with Google

Why sign up and log in

Guitar Tabs Explorer
Phil Collins bass tabs for Dont lose my number

Don't Lose My Number bass tab by Phil Collins

Phil Collins bass tabs for Dont lose my number

Bass tabs with lyrics

Standard tuning (EADG)

LEGEND:
r = rest
h = hammer on
/ = slide up
\ = slide down
vf = volume fade (appears above bar)
vo = volume out (appears above bar)

INTRO:
       (Rest x4)
G |---------------------------------|
D |---------------------------------|
A |---------------------------------|
E |-r-------------------------------|
  1  &  2  &  3  &  4  &

                 (x2)
G |---------------------------------|---------------5-r---------------|
D |---------------------------------|-------------------5-------------|
A |-3---3-r-------------3-r---------|-3---3-r-------------3-r---------|
E |---3-----------3-r-3-------------|---3-----------------------------|
  1  &  2  &  3  &  4  &   1  &  2  &  3  &  4  &


VERSE 1:

G |---------------------------------|---------------5-r---------------|
D |---------------------------------|-------------------5-------------|
A |-3---3-r-------------3-r---------|-3---3-r-------------3-r---------|
E |---3-----------3-r-3-------------|---3-----------------------------|
  1  &  2  &  3  &  4  &   1  &  2  &  3  &  4  &

G |---------------------------------|---------------5-r---------------|
D |---------------------------------|-------------------5-------------|
A |-3---3-r-------------3-r---------|-3---3-r-------------3-r---------|
E |---3-----------3-r-3-------------|---3---------------------------3-|
  1  &  2  &  3  &  4  &   1  &  2  &  3  &  4  &


PRE-CHORUS:

G |---------------------------------|---------------5-r---------------|
D |---------------------------------|-------------------5-------------|
A |-3---3-r-------------3-r---------|-3---3-r-------------3-r---------|
E |---3-----------3-r-3-------------|---3-----------------------------|
  1  &  2  &  3  &  4  &   1  &  2  &  3  &  4  &

G |---------------------------------|---------------------------------|
D |---------------------------------|-3-------------------------------|
A |-3---3-r-------------3-r---------|---3-----------------------------|
E |---3-----------3-r-3-------------|-----1-r-------4-r-4-r-4-6-r-6-r-|
  1  &  2  &  3  &  4  &   1  &  2  &  3  &  4  &


CHORUS 1:

G |---------------------------------|---------------------------------|
D |-------------------------3-r-3---|---------------------------------|
A |-6---6-r-------6-r-6-r-6-------6-|-4---4-r-------4-r-4-3-1-----1-2-|
E |---6-----------------------------|---4---------------------4-------|
  1  &  2  &  3  &  4  &   1  &  2  &  3  &  4  &

G |---------------------------------|---------------------------------|
D |---------------------------------|---------------------------------|
A |-3---3-------r-------3-------r---|-3---1-------r-1---/-4-----------|
E |---3-----------3-r-3-----------3-|---3-----------------------------|
  1  &  2  &  3  &  4  &   1  &  2  &  3  &  4  &

G |---------------------------------|---------------------------------|
D |-------------------------3-r-3---|---------------------------------|
A |-6---6---r-----6-r-6-r-6-------6-|-4---4---r-----4-r-4-3-1-----1-2-|
E |---6-----------------------------|---4---------------------4-------|
  1  &  2  &  3  &  4  &   1  &  2  &  3  &  4  &

G |---------------------------------|---------------------------------|
D |---------------------------------|---------------------------------|
A |-3---3-----r---3-r---3-----r-----|-3---1-------r-1---/-4-----------|
E |---3---------------3-----------3-|---3-----------------------------|
  1  &  2  &  3  &  4  &   1  &  2  &  3  &  4  &


PRE-VERSE:

G |---------------------------------|---------------5-r---------------|
D |---------------------------------|-------------------5-------------|
A |-3---3-r-------------3-r---------|-3---3-r-------------3-r---------|
E |---3-----------3-r-3-------------|---3-----------------------------|
  1  &  2  &  3  &  4  &   1  &  2  &  3  &  4  &


VERSE 2:

G |---------------------------------|---------------5-r---------------|
D |---------------------------------|-------------------5-------------|
A |-3---3-r-------------3-r---------|-3---3-r-------------3-r---------|
E |---3-----------3-r-3-------------|---3-----------------------------|
  1  &  2  &  3  &  4  &   1  &  2  &  3  &  4  &

G |---------------------------------|---------------5-r---------------|
D |---------------------------------|-------------------5-------------|
A |-3---3-r-------------3-r---------|-3---3-r-------------3-r---------|
E |---3-----------3-r-3-------------|---3-------------------------1-3-|
  1  &  2  &  3  &  4  &   1  &  2  &  3  &  4  &


PRE-CHORUS:

G |---------------------------------|---------------5-r---------------|
D |---------------------------------|-------------------5-------------|
A |-3---3-r-------------3-r---------|-3---3-r-------------3-r---------|
E |---3-----------3-r-3-------------|---3-----------------------------|
  1  &  2  &  3  &  4  &   1  &  2  &  3  &  4  &

G |---------------------------------|---------------------------------|
D |---------------------------------|-3-------------------------------|
A |-3---3-r-------------3-r---------|---3-----------------------------|
E |---3-----------3-r-3-------------|-----1-r-----1-4-r-4-r-4-6-r-6-r-|
  1  &  2  &  3  &  4  &   1  &  2  &  3  &  4  &


CHORUS 2:

G |---------------------------------|---------------------------------|
D |-------------------------3-r-3---|---------------------------------|
A |-6---6-r-------6-r-6-r-6-------6-|-4---4-r-------4-r-4-3-1-----1-2-|
E |---6-----------------------------|---4---------------------4-------|
  1  &  2  &  3  &  4  &   1  &  2  &  3  &  4  &

G |---------------------------------|---------------------------------|
D |---------------------------------|---------------------------------|
A |-3---3-------r-3-r---3-------r---|-3---1-------r-1---/-4-----------|
E |---3---------------3-----------3-|---3-----------------------------|
  1  &  2  &  3  &  4  &   1  &  2  &  3  &  4  &

G |---------------------------------|---------------------------------|
D |-------------------------3-r-3---|---------------------------------|
A |-6---6-r-------6-r-6-r-6-------6-|-4---4---r-----4-r-4-3-1-----1-2-|
E |---6-----------------------------|---4---------------------4-------|
  1  &  2  &  3  &  4  &   1  &  2  &  3  &  4  &

G |---------------------------------|---------------------------------|
D |---------------------------------|---------------------------------|
A |-3---3-----r---3-r---3-----------|-3---1-------r-1---/-4-----/11-\-|
E |---3---------------3-----------3-|---3-----------------------------|
  1  &  2  &  3  &  4  &   1  &  2  &  3  &  4  &


BRIDGE:

G |---------------------------------|---------------------------------|
D |---------------5-----------------|-----------3/7-5-----------------|
A |-------------5---------------3h5-|---------5-----------------1-3---|
E |-3---------3---------------6-----|-3-----------------------------1-|
  1  &  2  &  3  &  4  &   1  &  2  &  3  &  4  &

G |---------------------------------|-------------------------12---------|
D |---------------5-----------3-0---|-----------3/7-5-------7/---12------|
A |---------5-----------------------|---------5---------------------10\--|
E |-3-----------------------------1-|-3--------------------------------1-|
  1  &  2  &  3  &  4  &   1  &  2  &  3  &  4   &

G |-----------------------3-2-0-----|---------------------------------|
D |---------------5-------------3-0-|-------------3-5-----------------|
A |---------5-----------------------|---------5-------------------3h5-|
E |-3-------------------------------|-3-------------------------6-----|
  1  &  2  &  3  &  4  &   1  &  2  &  3  &  4  &

  6/4
G |-------------------------------------------------|
D |---------------5-------------3-----------5-3-----|
A |---------5---------------------5-------------5---|
E |-3-------------------------------3-------------3-|
  1  &  2  &  3  &  4  &  5  &  6  &

  6/4                        4/4
G |-------------------------------------------------|---------------------12--------------|
D |-------------------------------------------------|------------------------12-----------|
A |-------------------------------------------------|---------------------------10-8------|
E |(3)3-3-r-------3---3-3-r-------3---3-3-3---3-3-3-|(3)-----------------------------10-\-|
  1  &  2  &  3  &  4  &  5  &  6  &   1  &  2  &  3  &   4  &


GUITAR SOLO, Part 1:
                 (x3)
G |---------------------------------|---------------5-r---------------|
D |---------------------------------|-------------------5-------------|
A |-3---3-r-------------3-r---------|-3---3-r-------------3-r---------|
E |---3-----------3-r-3-------------|---3-----------------------------|
  1  &  2  &  3  &  4  &   1  &  2  &  3  &  4  &

G |---------------------------------|---------------5-r---------------|
D |---------------------------------|-------------------5-------3h5---|
A |-3---3-r-------------3-r---------|-3---3-r-------------3-r---------|
E |---3-----------3-r-3-------------|---3---------------------------3-|
  1  &  2  &  3  &  4  &   1  &  2  &  3  &  4  &

G |---------------------------------|---------------5-r---------------|
D |---------------------------------|-------------------5-------------|
A |-3---3-r-------------3-r---------|-3---3-r-------------3-r---------|
E |---3-----------3-r-3-----------3-|---3-----------------------------|
  1  &  2  &  3  &  4  &   1  &  2  &  3  &  4  &

G |---------------------------------|---------------------------------|
D |---------------------------------|-3-------------------------------|
A |-3---3-r-------5-r---5-r---------|---3-----------------------------|
E |---3---------------6-------------|-----1-r-------4-r-4-r-4-6-r-6-r-|
  1  &  2  &  3  &  4  &   1  &  2  &  3  &  4  &


CHORUS 3:

G |---------------------------------|---------------------------------|
D |-------------------------3-r-3---|---------------------------------|
A |-6---6-r-------6-r-6-r-6-------6-|-4---4-r-------4-r-4-3-1-----1-2-|
E |---6-----------------------------|---4---------------------4-------|
  1  &  2  &  3  &  4  &   1  &  2  &  3  &  4  &

G |---------------------------------|---------------------------------|
D |---------------------------------|---------------------------------|
A |-3---3-------r-3-r---3-------r---|-3---1-------r-1---/-4-------8-\-|
E |---3---------------3-----------3-|---3-----------------------------|
  1  &  2  &  3  &  4  &   1  &  2  &  3  &  4  &

G |---------------------------------|---------------------------------|
D |-------------------------3-r-3---|---------------------------------|
A |-6---6-r-------6-r-6-r-6-------6-|-4---4-------r-4-r-4-3-1-----1-2-|
E |---6-----------------------------|---4---------------------4-------|
  1  &  2  &  3  &  4  &   1  &  2  &  3  &  4  &

G |---------------------------------|---------------------------------|
D |---------------------------------|---------------------------------|
A |-3---3-----r---3-r---3-------r---|-3---1-------r-1---/-4-----------|
E |---3---------------3-------------|---3-----------------------------|
  1  &  2  &  3  &  4  &   1  &  2  &  3  &  4  &


VERSE 3:

G |---------------------------------|---------------5-r---------------|
D |---------------------------------|-------------5-----5-------------|
A |-3---3-r-------3-r---3-r-----3---|-3---3-r-------------3-r---------|
E |---3---------------3-----------3-|---3-----------------------0-1-3-|
  1  &  2  &  3  &  4  &   1  &  2  &  3  &  4  &

G |---------------------------------|---------------5-r---------------|
D |---------------------------------|-------------------5-------------|
A |-3---3-r-------------3-r-----3---|-3---3-r-------------3-r---------|
E |---3-----------3-r-3-----------3-|---3-----------------------0-1-3-|
  1  &  2  &  3  &  4  &   1  &  2  &  3  &  4  &


PRE-CHORUS:

G |---------------------------------|---------------5-r---------------|
D |---------------------------------|-------------------5-------------|
A |-3---3-r-------------3-r-----3---|-3---3-r-------------3-r---------|
E |---3-----------3-r-3-----------3-|---3-----------------------0-1-3-|
  1  &  2  &  3  &  4  &   1  &  2  &  3  &  4  &

G |---------------------------------|---------------------------------|
D |-----------------------------1-2-|-3-------------------------------|
A |-3---3-r-------3-r---3-r---------|---3-----------------------------|
E |---3---------------3-------------|-----1-----r-1-4---4---4-6---6---|
  1  &  2  &  3  &  4  &   1  &  2  &  3  &  4  &


CHORUS 4:

G |---------------------------------|---------------------------------|
D |-------------------------3-r-3---|---------------------------------|
A |-6---6-r-------6-r-6-r-6-------6-|-4---4-r-------4-r-4-3-1-----1-2-|
E |---6-----------------------------|---4---------------------4-------|
  1  &  2  &  3  &  4  &   1  &  2  &  3  &  4  &

G |---------------------------------|---------------------------------|
D |---------------------------------|---------------------------------|
A |-3---3-------r-3-r---3-------r---|-3---1-------r-1---/-4-----------|
E |---3---------------3-------------|---3-----------------------------|
  1  &  2  &  3  &  4  &   1  &  2  &  3  &  4  &

G |---------------------------------|---------------------------------|
D |-------------------------3-r-3---|---------------------------------|
A |-6---6-r-------6-r-6-r-6-------6-|-4---4-------r-4-r-4-3-1-----1-2-|
E |---6-----------------------------|---4---------------------4-------|
  1  &  2  &  3  &  4  &   1  &  2  &  3  &  4  &

G |---------------------------------|---------------------------------|
D |---------------------------------|---------------------------------|
A |-3---3-------r-3-r---3---------3-|-3---1-------r-1---/-4-----------|
E |---3---------------3---------3---|---3-----------------------------|
  1  &  2  &  3  &  4  &   1  &  2  &  3  &  4  &


OUTRO:
  vf
G |---------------------------------|---------------------------------|
D |-------------------------3-r-3---|---------------------------------|
A |-6---6-r-------6-r-6-r-6-------6-|-4---4-------r-4-r-4-3-1-----1-2-|
E |---6-----------------------------|---4---------------------4-------|
  1  &  2  &  3  &  4  &   1  &  2  &  3  &  4  &

G |---------------------------------|---------------------------------|
D |---------------------------------|---------------------------------|
A |-3---3-------r-3-r---3-------r---|-3---1-------r-1---/-4------/8-\-|
E |---3---------------3-----------3-|---3-----------------------------|
  1  &  2  &  3  &  4  &   1  &  2  &  3  &  4  &

G |---------------------------------|---------------------------------|
D |-------------------------3-r-3---|---------------------------------|
A |-6---6-----r---6-r-6-r-6-------6-|-4---4-------r-4-r-4-3-1-----1-2-|
E |---6-----------------------------|---4---------------------4-------|
  1  &  2  &  3  &  4  &   1  &  2  &  3  &  4  &

                vo
G |---------------------------------|
D |---------------------------------|
A |-3---3-------r-3-r---3-----------|
E |---3---------------3-------------|
  1  &  2  &  3  &  4  &

THE END

Almost there ...

Sign in to get your own page with links to favourite songs and more. You are just one click away...

Login with Facebook Login with Google