Log in

One click and you are in

Login with Facebook Login with Google

Why sign up and log in

Guitar Tabs Explorer
Judy Collins bass tabs for City of new orleans

City Of New Orleans bass tab by Judy Collins

Judy Collins bass tabs for City of new orleans

Bass tabs

City Of New Orleans
This version by Country & Western singer Judy Collins taken from her 1975
Album Judith. Bass performance Tony Levin. Tab by bass50611. Welcome to my
Tab of this much-covered song. Not exact but close to the original bassline
Intro:
G|--------------|
D|-GUITAR START-|
A|---NO BASS----|
E|--------------|


Verse 1:
G|-------------------------------------------------------------------|
D|-------4--4-----------------2--2---------------------4-------------|
A|-2--2--------2---2-------6--------2--2-----0-1-2--2----4---2---2---|
E|---------------2---2---4---------------2--2------------------2---2-|

G|-----------------------------------------------------------------------|
D|-------4--4-------------------------------4---4------------------------|
A|-------------2---2-------6---6---6---6------4---4---4---4--4-2---6---6-|
E|-4--4----------2---2-3-4---4-------6---6--------------4--------4---4---|

G|--------------------------------|
D|----------4---4-------------0-1-|
A|-6---6------4---4---2---2--2----|
E|---6---6--------------2---------|


Chorus:
G|----------------------------------------------------------------------|
D|-2----4--------------------2--2-------4-------------4----6---6----7---|
A|---2----4---2---2-------6--------2--2-----0-1-2--2----4----6---6----7-|
E|--------------2---2---4------------------2----------------------------|

G|---------------|
D|-4-------------|
A|---4---2---2---|
E|---------2---2-|

Verse 2:
G|-------------------------------------------------------------------|
D|-------4--4-----------------2--2---------------------4-------------|
A|-2--2--------2---2-------6--------2--2-----0-1-2--2----4---2---2---|
E|---------------2---2---4---------------2--2------------------2---2-|

G|-----------------------------------------------------------------------|
D|-------4--4-------------------------------4---4------------------------|
A|-------------2---2-------6---6---6---6------4---4---4---4--4-2---6---6-|
E|-4--4----------2---2-3-4---4-------6---6--------------4--------4---4---|

G|--------------------------------|
D|----------4---4-------------0-1-|
A|-6---6------4---4---2---2--2----|
E|---6---6--------------2---------|


Chorus:
G|---------------------------------------------------------------------|
D|-2----4--------------------2--2-------4-------------4----6---6---7---|
A|---2----4---2---2-------6--------2--2-----0-1-2--2----4----6--6----7-|
E|--------------2---2---4------------------2---------------------------|

G|----------------|
D|-4--------------|
A|---4----2---2---|
E|----------2---2-|

Interlude:
G|---------------------------------------------------------|
D|-------4--4----4------------2--2---------------------4---|
A|-2--2--------2---2-------6--------2--2-----0-1-2--2----4-|
E|-------------------2---4---------------2--2--------------|

G|-------------------------------------|
D|-------1-4-5-6--6---4--4-------------|
A|-2---2--------------------2---2--0-1-|
E|---2------------------------2---2----|


Verse 3:
G|-------------------------------------------------------------------|
D|-------4--4-----------------2--2---------------------4-------------|
A|-2--2--------2---2-------6--------2--2-----0-1-2--2----4---2---2---|
E|---------------2---2---4---------------2--2------------------2---2-|

G|-----------------------------------------------------------------------|
D|-------4--4-------------------------------4---4------------------------|
A|-------------2---2-------6---6---6---6------4---4---4---4--4-2---6---6-|
E|-4--4----------2---2-3-4---4-------6---6--------------4--------4---4---|

G|--------------------------------|
D|----------4---4-------------0-1-|
A|-6---6------4---4---2---2--2----|
E|---6---6--------------2---------|


Chorus:
G|----------------------------------------------------------------------|
D|-2----4--------------------2--2-------4-------------4----6---6----7---|
A|---2----4---2---2-------6--------2--2-----0-1-2--2----4----6---6----7-|
E|--------------2---2---4------------------2----------------------------|

G|---------------|
D|-4-------------|
A|---4---2---2---|
E|---------2---2-|


Outro:                                (End)
G|------------------------------------------------------------------------|
D|-7----4--------------7----4--------------7-----4-------2-4-2-4-2-4------|
A|---7----4---2---2------7----4---2---2----------------2-------------4--2-|
E|--------------2---2---------------2---2---------------------------------|

Almost there ...

Sign in to get your own page with links to favourite songs and more. You are just one click away...

Login with Facebook Login with Google