Log in

One click and you are in

Login with Facebook Login with Google

Why sign up and log in

Guitar Tabs Explorer
Judy Collins bass tabs for Both sides now

Bass tabs

  • Tuning: Standard tuning
  • Difficulty: Novice
--------------------------------------------------------------------------
                     Artist - Judy Collins
                     ***********************
                     Song - Both Sides Now
                     ***********************
                    Album - Wildflowers (1967)
                   ****************************
                     Tabbed By - Ayreon77
                     **********************
--------------------------------------------------------------------------

Tuning = Standard

INTRO
******
G|------------------|--------------------|
D|------------------|--------------------|
A|------------------|--------------------|
E|-4--4-4--4-4--4-4-|-4-4--4-4--4-4--4-4-|


------------------------------
VOCALS
*******
 Bows and flows of angel hair.......................
G|-------------------------|---------------|-------------------------------------------------|
D|-------------------------|---------------|-------------------------------------------------|
A|-------------------------|-2-3--3-4--4---|------2-3--3------------------------6--6-6-6-6-6-|
E|-4-4--4-4--4-4--4-4--4-4-|-------------4-|-4-4---------6--6-6--6-6--6-6-6-7-8--------------|

 But now they only block the sun...................................
G|-----------------------|---------------|----------------------------------------------|
D|-----------------------|---------------|----------------------------------------------|
A|-----------------------|-2-3--3-4--4---|------2-3--3------------------------6-6-66666-|
E|-4--4-4--4-4--4-4--4-4-|-------------4-|-4-4---------6--6-6--6-6--6-6-6-7-8-----------|

------------------------------
00:40

CHORUS
*******
 I`ve looked at clouds from both sides now.........................
G|--------------------------------------|---------------|-----------------------------------------|
D|--------------------------------------|---------------|-----------------------------------------|
A|--------------------------------------|-2-3--3-4--4---|-----------2-3--4-6--6-6--6-6--6-6-6-6-6-|
E|-4--4-4--4-4--4-4--4-4--4-4--4-4--4-4-|-------------4-|-4-4--4-4--------------------------------|

 Alllllllllllllll.......
G|--------------------------------------|
D|--------------------------------------|
A|--------------------------------------|
E|-4--4-4--4-4--4-4--4-4--4-4--4-4--4-4-|


------------------------------
01:06

VERSE 2
********
 Moons and Junes and Ferris wheels.......................
G|-------------------------|---------------|-------------------------------------------------|
D|-------------------------|---------------|-------------------------------------------------|
A|-------------------------|-2-3--3-4--4---|------2-3--3------------------------6--6-6-6-6-6-|
E|-4-4--4-4--4-4--4-4--4-4-|-------------4-|-4-4---------6--6-6--6-6--6-6-6-7-8--------------|

 But now it`s just another show.............................
G|-----------------------|---------------|----------------------------------------------|
D|-----------------------|---------------|----------------------------------------------|
A|-----------------------|-2-3--3-4--4---|------2-3--3------------------------6-6-66666-|
E|-4--4-4--4-4--4-4--4-4-|-------------4-|-4-4---------6--6-6--6-6--6-6-6-7-8-----------|


------------------------------
01:37

CHORUS
*******
 I`ve looked at clouds from both sides now.........................
G|--------------------------------------|---------------|-----------------------------------------|
D|--------------------------------------|---------------|-----------------------------------------|
A|--------------------------------------|-2-3--3-4--4---|-----------2-3--4-6--6-6--6-6--6-6-6-6-6-|
E|-4--4-4--4-4--4-4--4-4--4-4--4-4--4-4-|-------------4-|-4-4--4-4--------------------------------|

 Alllllllllllllll.......
G|--------------------------------------|
D|--------------------------------------|
A|--------------------------------------|
E|-4--4-4--4-4--4-4--4-4--4-4--4-4--4-4-|


------------------------------
02:03

VERSE 3
********
 Tears and fears and feeling proud to say....................
G|-------------------------|---------------|-------------------------------------------------|
D|-------------------------|---------------|-------------------------------------------------|
A|-------------------------|-2-3--3-4--4---|------2-3--3------------------------6--6-6-6-6-6-|
E|-4-4--4-4--4-4--4-4--4-4-|-------------4-|-4-4---------6--6-6--6-6--6-6-6-7-8--------------|

 But now old friends are acting strange....................
G|-----------------------|---------------|----------------------------------------------|
D|-----------------------|---------------|----------------------------------------------|
A|-----------------------|-2-3--3-4--4---|------2-3--3------------------------6-6-66666-|
E|-4--4-4--4-4--4-4--4-4-|-------------4-|-4-4---------6--6-6--6-6--6-6-6-7-8-----------|


------------------------------
02:35

CHORUS
*******
 I`ve looked at clouds from both sides now.........................
G|--------------------------------------|---------------|-----------------------------------------|
D|--------------------------------------|---------------|-----------------------------------------|
A|--------------------------------------|-2-3--3-4--4---|-----------2-3--4-6--6-6--6-6--6-6-6-6-6-|
E|-4--4-4--4-4--4-4--4-4--4-4--4-4--4-4-|-------------4-|-4-4--4-4--------------------------------|

 Alllllllllllllll.......
G|--------------------------------------|-----------------------------------|
D|--------------------------------------|-----------------------------------|
A|--------------------------------------|-----------------------------------|
E|-4--4-4--4-4--4-4--4-4--4-4--4-4--4-4-|-4-4--4-4--4-4--4-4--4-4--4-4--4-4-|


ENJOY.........

Almost there ...

Sign in to get your own page with links to favourite songs and more. You are just one click away...

Login with Facebook Login with Google