Log in

One click and you are in

Login with Facebook Login with Google

Why sign up and log in

Guitar Tabs Explorer
Leonard Cohen bass tabs for Lover lover lover

Bass tabs with lyrics

Intro:

No bass

♥ Verse 1:

G|-----------------------------------------|
D|-----------------------------------------|
A|-----------------------------------------|
E|---5----------------5-5------------------|

G|-----------------------------------------|
D|-----------------------------------------|
A|-----------------------------------------|
E|---0----------------0-0------------------|

G|-----------------------------------------|
D|-----------------------------------------|
A|-----------------------------------------|
E|---5----------------5-5------------------|

G|-----------------------------------------|
D|-----------------------------------------|
A|-----------------------------------------|
E|---0----------------0-0------------------|


♥ Chorus:

G|-----------------------------------------|
D|-----------------------------------------|
A|-------/15--------------/15--------------|
E|---8----------------8--------------------|

G|-----------------------------------------|
D|-----------------------------------------|
A|-----------------------------------------|
E|---3--3-3---3--3-3---3--3-3---3--3-3-----|

G|-----------------------------------------|
D|-----------------------------------------|
A|-------/15--------------/15--------------|
E|---8----------------8--------------------|

G|-----------------------------------------|
D|-----------------------------------------|
A|-----------------------------------------|
E|---3--3-3---3--3-3---3--3-3---3--3-3-----|
Verse 2:

G|-----------------------------------------|
D|-----------------------------------------|
A|-----------------------------------------|
E|---5----------------5-5------------------|

G|-----------------------------------------|
D|-----------------------------------------|
A|-----------------------------------------|
E|---0----------------0-0------------------|

G|-----------------------------------------|
D|-----------------------------------------|
A|-----------------------------------------|
E|---5----------------5-5------------------|

G|-----------------------------------------|
D|-----------------------------------------|
A|-----------------------------------------|
E|---0----------------0-0------------------|


♥ Chorus:

G|-----------------------------------------|
D|-----------------------------------------|
A|-------/15--------------/15--------------|
E|---8----------------8--------------------|

G|-----------------------------------------|
D|-----------------------------------------|
A|-----------------------------------------|
E|---3--3-3---3--3-3---3--3-3---3--3-3-----|

G|-----------------------------------------|
D|-----------------------------------------|
A|-------/15--------------/15--------------|
E|---8----------------8--------------------|

G|-----------------------------------------|
D|-----------------------------------------|
A|-----------------------------------------|
E|---3--3-3---3--3-3---3--3-3---3--3-3-----|


♥ Verse 3:

G|-----------------------------------------|
D|-----------------------------------------|
A|-----------------------------------------|
E|---5----------------5-5------------------|

G|-----------------------------------------|
D|-----------------------------------------|
A|-----------------------------------------|
E|---0----------------0-0------------------|

G|-----------------------------------------|
D|-----------------------------------------|
A|-----------------------------------------|
E|---5----------------5-5------------------|

G|-----------------------------------------|
D|-----------------------------------------|
A|-----------------------------------------|
E|---0----------------0-0------------------|


♥ Chorus:

G|-----------------------------------------|
D|-----------------------------------------|
A|-------/15--------------/15--------------|
E|---8----------------8--------------------|

G|-----------------------------------------|
D|-----------------------------------------|
A|-----------------------------------------|
E|---3--3-3---3--3-3---3--3-3---3--3-3-----|

G|-----------------------------------------|
D|-----------------------------------------|
A|-------/15--------------/15--------------|
E|---8----------------8--------------------|

G|-----------------------------------------|
D|-----------------------------------------|
A|-----------------------------------------|
E|---3--3-3---3--3-3---3--3-3---3--3-3-----|


♥ Verse 4:

G|-----------------------------------------|
D|-----------------------------------------|
A|-----------------------------------------|
E|---5----------------5-5------------------|

G|-----------------------------------------|
D|-----------------------------------------|
A|-----------------------------------------|
E|---0----------------0-0------------------|

G|-----------------------------------------|
D|-----------------------------------------|
A|-----------------------------------------|
E|---5----------------5-5------------------|

G|-----------------------------------------|
D|-----------------------------------------|
A|-----------------------------------------|
E|---0----------------0-0------------------|


♥ Chorus:

G|-----------------------------------------|
D|-----------------------------------------|
A|-------/15--------------/15--------------|
E|---8----------------8--------------------|

G|-----------------------------------------|
D|-----------------------------------------|
A|-----------------------------------------|
E|---3--3-3---3--3-3---3--3-3---3--3-3-----|

G|-----------------------------------------|
D|-----------------------------------------|
A|-------/15--------------/15--------------|
E|---8----------------8--------------------|

G|-----------------------------------------|
D|-----------------------------------------|
A|-----------------------------------------|
E|---3--3-3---3--3-3---3--3-3---3--3-3-----|


♥ Verse 5:

G|-----------------------------------------|
D|-----------------------------------------|
A|-----------------------------------------|
E|---5----------------5-5------------------|

G|-----------------------------------------|
D|-----------------------------------------|
A|-----------------------------------------|
E|---0----------------0-0------------------|

G|-----------------------------------------|
D|-----------------------------------------|
A|-----------------------------------------|
E|---5----------------5-5------------------|

G|-----------------------------------------|
D|-----------------------------------------|
A|-----------------------------------------|
E|---0----------------0-0------------------|


♥ Chorus:

G|-----------------------------------------|
D|-----------------------------------------|
A|-------/15--------------/15--------------|
E|---8----------------8--------------------|

G|-----------------------------------------|
D|-----------------------------------------|
A|-----------------------------------------|
E|---3--3-3---3--3-3---3--3-3---3--3-3-----|

G|-----------------------------------------|
D|-----------------------------------------|
A|-------/15--------------/15--------------|
E|---8----------------8--------------------|

G|-----------------------------------------|
D|-----------------------------------------|
A|-----------------------------------------|
E|---3--3-3---3--3-3---3--3-3---3--3-3-----|

G|-----------------------------------------|
D|-----------------------------------------|
A|-------/15--------------/15--------------|
E|---8----------------8--------------------|

G|-----------------------------------------|
D|-----------------------------------------|
A|-----------------------------------------|
E|---3--3-3---3--3-3---3--3-3---3--3-3-----|

G|-----------------------------------------|
D|-----------------------------------------|
A|-------/15--------------/15--------------|
E|---8----------------8--------------------|

G|-----------------------------------------|
D|-----------------------------------------|
A|-----------------------------------------|
E|---3--3-3---3--3-3---3--3-3---3--3-3-----|

G|-----------------------------------------|
D|-----------------------------------------|
A|-------/15--------------/15--------------|
E|---8----------------8--------------------|

G|-----------------------------------------|
D|-----------------------------------------|
A|-----------------------------------------|
E|---3--3-3---3--3-3---3--3-3---3--3-3-----|


The parts always stay the same, so to sum up the structure of the song :


♥ Verse 1:
♥ Chorus:
♥ Verse 2:
♥ Chorus:
♥ Verse 3:
♥ Chorus:
♥ Verse 4:
♥ Chorus:
♥ Verse 5:

[Chorus} (play 2,5 times until the song fades out)


************************************
| /  Slide up
************************************
ⓘ Bass guitar tab for 'Lover Lover Lover' by Leonard Cohen, Leonard Norman Cohen, a male folk artist from Westmount, Montreal, Canada. Leonard Cohen was born in 1934. He passed away in 2016. Leonard Cohen was known for his carefree folk music.

Almost there ...

Sign in to get your own page with links to favourite songs and more. You are just one click away...

Login with Facebook Login with Google