Log in

One click and you are in

Login with Facebook Login with Google

Why sign up and log in

Guitar Tabs Explorer
Alma Cogan bass tabs for Tennessee waltz

Bass tabs

Tuning: Standard (E A D G)


Intro:
G|-------------------------------------------|
D|-3----3-----3----3-----3----3-----3----3---|
A|--------3----------3----------3----------3-|
E|-------------------------------------------|

Verse 1:
G|-------------------------------------------------------------------|
D|-3----3-----3----3-----3----3------------------3----3-----3----3---|
A|--------3----------3----------3-----1----1-1----------3----------3-|
E|-------------------------------------------------------------------|

G|---------------------------------------------------------------------|
D|-5----5-------------------3----3-----3----3-----3----3---------------|
A|--------5-----3----3-3-----------3----------3----------3----1----1-1-|
E|---------------------------------------------------------------------|

G|---------------------------------------------|
D|-3----3-3---------------3----3------3----3---|
A|------------3----3-3-----------3-----------3-|
E|---------------------------------------------|


Verse 2:
G|----------------------------------------------------------------------|
D|-3----3--------------------------------3----3-----3----3-----3----3---|
A|--------3-----0----0-0-----1----1-1-----------3----------3----------3-|
E|----------------------------------------------------------------------|

G|---------------------------------------------------------------------|
D|--------------------------------------3----3-----3----3-----3----3---|
A|-3-3-3-3-3-3-3-3---3-3-3-3-3-3-3-3-----------3----------3----------3-|
E|---------------------------------------------------------------------|

G|---------------------------------------------------------|
D|-------------3----3-3----------------3----3-----3----3---|
A|-1----1-1----------------3----3-3-----------3----------3-|
E|---------------------------------------------------------|


Verse 3:
G|----------------------------------------------------------------------|
D|-3----3--------------------------------3----3-----3----3-----3----3---|
A|--------3-----0----0-0-----1----1-1-----------3----------3----------3-|
E|----------------------------------------------------------------------|

G|---------------------------------------------------------------------|
D|--------------------------------------3----3-----3----3-----3----3---|
A|-3-3-3-3-3-3-3-3---3-3-3-3-3-3-3-3-----------3----------3----------3-|
E|---------------------------------------------------------------------|

G|---------------------------------------------------------|
D|-------------3----3-3----------------3----3-----3----3---|
A|-1----1-1----------------3----3-3-----------3----------3-|
E|---------------------------------------------------------|


Outro: (Repeat Outro To Fade/End)
G|---------------------------------------------|
D|-3----3-3----------------3----3-----3----3---|
A|-------------3----3-3-----------3----------3-|
E|---------------------------------------------|

Almost there ...

Sign in to get your own page with links to favourite songs and more. You are just one click away...

Login with Facebook Login with Google