Log in

One click and you are in

Login with Facebook Login with Google

Why sign up and log in

Guitar Tabs Explorer
Code Orange bass tabs for No one is untouchable

No One Is Untouchable bass tab by Code Orange

Code Orange bass tabs for No one is untouchable

Bass tabs

Tuning: Drop B (B F# B E)


Intro:

E |-------|
B |-------|
F#|-------|
B |-1-1x--|

E |-------------------------------------------------------------------------------------|
B |-------------------------------------------------------------------------------------|
F#|-------------------------------------------------------------------------------------|
B |-1-1-1-0-0-0-4-4-3-2--1-1-1-0-0-0-4-4-3-2--1-1-1-0-0-0-4-4-3-2--1-1-1-0-0-0-4-4-3-2--|

E |------------------------------------------------------------------------------------------|
B |------------------------------------------------------------------------------------------|
F#|------------------------------------------------------------------------------------------|
B |-1-1-1-0-0-0-4-4-3-2--1-1-1-0-0-0-4-4-3-2--1-1-1-0-0-0-4-4-3-2--1-1-1-0-0-0-1--1--1--3-2--|

(Pause)

E |----------------------------------------------------------------------|
B |----------------------------------------------------------------------|
F#|----------------------------------------------------------------------|
B |-1-1-1-0-0-0-1-1-1-0-0-0-2-3-2-1-1-1-1-1-0-0-0-0-1-1-1-0-0-0-0-0-0-0--|


E |----------------------------------------------------------------------|
B |----------------------------------------------------------------------|
F#|------------------------------------------------------------------5---|
B |-1-1-1-0-0-0-1-1-1-0-0-0-2-3-2-1-1-1-1-1-0-0-0-0-1-1--0---0---0-----6-|


E |----------------------------------------------------------------------|
B |----------------------------------------------------------------------|
F#|----------------------------------------------------------------------|
B |-1-1-1-0-0-0-1-1-1-0-0-0-2-3-2-1-1-1-1-1-0-0-0-0-1-1-1-0-0-0-0-0-0-0--|

E |----------------------------------------------------------------------|
B |----------------------------------------------------------------------|
F#|----------------------------------------------------------------------|
B |-1-1-1-0-0-0-1-1-1-0-0-0-2-3-2-1-1-1-1-1-0-0-0-0-1-1-1-0-0-0-4-3-2-1--|

(Pause)

E |----------|
B |----------|
F#|----------|
B |-3-4-3-2--|

(Pause)

Verse 1:

E |----------------------------------------------|
B |----------------------------------------------|
F#|----------------------------------------------|
B |-4-3-2-1--------3-4-3-2--------3---2---1---0--|

E |----------------------------------------------|
B |----------------------------------------------|
F#|----------------------------------------------|
B |-4-3-2-1--------3-4-3-2--------3---2---1---0--|

E |----------------------------------------------|
B |----------------------------------------------|
F#|----------------------------------------------|
B |-4-3-2-1--------3-4-3-2--------3---2---1------|

E |----------------------------------------------|
B |----------------------------------------------|
F#|----------------------------------------------|
B |-4-3-2-1--------3-4-3-2--------3---2---1------|

E |----------------------------------------------|
B |----------------------------------------------|
F#|----------------------------------------------|
B |-4-3-2-1--------3-4-3-2--------3---2---1------|

E |----------------------------------------------|
B |----------------------------------------------|
F#|----------------------------------------------|
B |-4-3-2-1--------3-4-3-2--------3---2---1---0--|

E |------------|
B |------------|
F#|------------|
B |-2-1---2-1--|


Chorus:

E |----------------------------------------------------------------------|
B |----------------------------------------------------------------------|
F#|----------------------------------------------------------------------|
B |-1-1-1-0-0-0-1-1-1-0-0-0-2-3-2-1-1-1-1-1-0-0-0-0-1-1-1-0-0-0-0-0-0-0--|


E |----------------------------------------------------------------------|
B |----------------------------------------------------------------------|
F#|------------------------------------------------------------------5---|
B |-1-1-1-0-0-0-1-1-1-0-0-0-2-3-2-1-1-1-1-1-0-0-0-0-1-1--0---0---0-----6-|


E |----------------------------------------------------------------------|
B |----------------------------------------------------------------------|
F#|----------------------------------------------------------------------|
B |-1-1-1-0-0-0-1-1-1-0-0-0-2-3-2-1-1-1-1-1-0-0-0-0-1-1-1-0-0-0-0-0-0-0--|

E |----------------------------------------------------------------------|
B |----------------------------------------------------------------------|
F#|------------------------------------------------------------------5---|
B |-1-1-1-0-0-0-1-1-1-0-0-0-2-3-2-1-1-1-1-1-0-0-0-0-1-1--0---0---0-----6-|

E |----------------------------------------------------------|
B |----------------------------------------------------------|
F#|--------------5------------------5------------------------|
B |--0---0---0-----6----0---0---0-----6-1~-------------------|


Outro:

E |--------------------------------------------------|
B |--------------------------------------------------|
F#|--------------------------------------------------|
B |-0----1----3-2-1----2-2--1----2-1---3-3-2--6-6-1--|

E |--------------------------------------------------|
B |--------------------------------------------------|
F#|------------------------------------3-3----2-2----|
B |-0----1----3-2-1----2-2--1----2-1-0-----4------3--|

E |--------------------------------------------------|
B |--------------------------------------------------|
F#|--------------------------------------------------|
B |-0----1----3-2-1----2-2--1----2-1---3-3-2--6-6-1--|

E |----------------------------|
B |----------------------------|
F#|----------------------------|
B |-0----1----2-2-1----2-2-1x--|


************************************

| x  Dead note
| ~  Vibrato

************************************

Almost there ...

Sign in to get your own page with links to favourite songs and more. You are just one click away...

Login with Facebook Login with Google