Log in

One click and you are in

Login with Facebook Login with Google

Why sign up and log in

Guitar Tabs Explorer
Cloud Control guitar tabs for Scar

Guitar tabs with lyrics

Tuning: Standard (E A D G B E)

(Chorus chords)
(A chord diagramC majorC)Barre 3rd fret with finger on 5th fret of D, A chord diagramG MajorG and A chord diagramBB strings, release A chord diagramBB string on final strum
(A chord diagramG MajorG)Barre 3rd fret with fingers on the 5th fret of A chord diagramA majorA and A chord diagramD MajorD strings and 4th fret of A chord diagramG MajorG string
(A chord diagramFF)Move the A chord diagramG MajorG chord down two frets
(A chord diagramA minorAm)Barre 5th fret with fingers on the 7th fret of the A chord diagramA majorA and A chord diagramD MajorD strings
Intro:
e|----------------------------------------------------------------------|
B|---10---10-----10--10------5--5-----5--5-----3--3-----5--5-----1--1---|
G|--10--10--10--10--10--10--5--5--5--5--5--5--4--4--4--5--5--5--2--2--2-|
D|-10--10--10--10--10--10--7--7--7--7--7--7--5--5--5--5--5--5--3--3--3--|
A|----------------------------------------------------------------------|
E|----------------------------------------------------------------------|

e|----------------------------------------------------------------------|
B|---10---10-----10--10------5--5-----5--5-----3--3-----5--5-----1--1---|
G|--10--10--10--10--10--10--5--5--5--5--5--5--4--4--4--5--5--5--2--2--2-|
D|-10--10--10--10--10--10--7--7--7--7--7--7--5--5--5--5--5--5--3--3--3--|
A|----------------------------------------------------------------------|
E|----------------------------------------------------------------------|


Verse 1:

e|----------------------------------------------------------------------|
B|---10---10-----10--10------5--5-----5--5-----3--3-----5--5-----1--1---|
G|--10--10--10--10--10--10--5--5--5--5--5--5--4--4--4--5--5--5--2--2--2-|
D|-10--10--10--10--10--10--7--7--7--7--7--7--5--5--5--5--5--5--3--3--3--|
A|----------------------------------------------------------------------|
E|----------------------------------------------------------------------|

e|----------------------------------------------------------------------|
B|---10---10-----10--10------5--5-----5--5-----3--3-----5--5-----1--1---|
G|--10--10--10--10--10--10--5--5--5--5--5--5--4--4--4--5--5--5--2--2--2-|
D|-10--10--10--10--10--10--7--7--7--7--7--7--5--5--5--5--5--5--3--3--3--|
A|----------------------------------------------------------------------|
E|----------------------------------------------------------------------|

Chorus:

A chord diagramC majorC            A chord diagramG MajorG  A chord diagramFF
It's just so ha-rd
          A chord diagramA minorAm
Even if I try
           A chord diagramC majorC
I will not lie
         A chord diagramG MajorG  A chord diagramFF
I want a sc-ar
               A chord diagramA minorAm
Look at you so fly


Bridge:

A chord diagramC majorC            A chord diagramFF
My hands are tied, I can't deny
          A chord diagramA minorAm
The way I feel
A chord diagramC majorC            A chord diagramFF
My hands are tied, I can't decide
          A chord diagramA minorAm
The way I feel
A chord diagramC majorC            A chord diagramFF
My hands are tied, I can't deny
          A chord diagramA minorAm       A chord diagramC majorC
The way I feel, no

Other versions of Scar

ScarChords

Almost there ...

Sign in to get your own page with links to favourite songs and more. You are just one click away...

Login with Facebook Login with Google