Log in

One click and you are in

Login with Facebook Login with Google

Why sign up and log in

Guitar Tabs Explorer
Jimmy Cliff bass tabs for Wonderful world beautiful people

Wonderful World Beautiful People bass tab by Jimmy Cliff

Jimmy Cliff bass tabs for Wonderful world beautiful people

Bass tabs

Tuning: Standard (E A D G)

Difficulty: Novice

Wonderful World Beautiful People
1969 release for Jimmy Cliff (Born James Chambers). Peaked at #6 in the
UK charts. Tab by bass50611. This is Jamaican Reggae at its best from
The Trojan Record Company. Great song
Intro:
G|------------|--------------------------------------------------------|
D|-DRUM START-|---------5--5----------5--5----------5--5----------5--5-|
A|------------|-5-5-5---------5-5-5---------5-5-5---------5-5-5--------|
E|------------|--------------------------------------------------------|


Chorus:
G|-----------------------------------------------------------------------|
D|---------5--5----------5--5----------5--5----------5--5----------------|
A|-5-5-5---------5-5-5---------5-5-5---------5-5-5-----------------------|
E|----------------------------------------------------------5-5-5---5--5-|

G|-----------------------------------------------------------------|
D|-----------------------------------------------------------------|
A|--------------------------------------5-5-5---3--3---------------|
E|-5-5-5---5--5---5-5-5---5--5---5-5-5----------------3-3-3---3--3-|

G|----------------------------|
D|----------------------------|
A|-5-5-5---3--3---------------|
E|---------------5-5-5---5--5-|


Verse:
G|---------------------------------------------------------|
D|---------------4-4-4---4--4---5-5-5---5--5---------------|
A|-5-5-5---5--5-------------------------------5-5-5---5--5-|
E|---------------------------------------------------------|

                       (Play This Bit x2)
G|---------------------------------------------------------|
D|---------------4-4-4---4--4---5-5-5---5--5---------------|
A|-5-5-5---5--5--------------------------------------------|
E|--------------------------------------------5-5-5---5--5-|

Pre-Chorus:
G|------------------------------------------------------------------------|
D|---------5--5----------5--5----------5--5---7-7-7---7--7---7-7-7---7--7-|
A|-5-5-5---------5-5-5---------5-5-5--------------------------------------|
E|------------------------------------------------------------------------|


Chorus:
G|-----------------------------------------------------------------------|
D|---------5--5----------5--5----------5--5----------5--5----------------|
A|-5-5-5---------5-5-5---------5-5-5---------5-5-5-----------------------|
E|----------------------------------------------------------5-5-5---5--5-|

G|-----------------------------------------------------------------|
D|-----------------------------------------------------------------|
A|--------------------------------------5-5-5---3--3---------------|
E|-5-5-5---5--5---5-5-5---5--5---5-5-5----------------3-3-3---3--3-|

G|----------------------------|
D|----------------------------|
A|-5-5-5---3--3---------------|
E|---------------5-5-5---5--5-|


Verse:
G|---------------------------------------------------------|
D|---------------4-4-4---4--4---5-5-5---5--5---------------|
A|-5-5-5---5--5-------------------------------5-5-5---5--5-|
E|---------------------------------------------------------|

                       (Play This Bit x2)
G|---------------------------------------------------------|
D|---------------4-4-4---4--4---5-5-5---5--5---------------|
A|-5-5-5---5--5--------------------------------------------|
E|--------------------------------------------5-5-5---5--5-|


Pre-Chorus:
G|------------------------------------------------------------------------|
D|---------5--5----------5--5----------5--5---7-7-7---7--7---7-7-7---7--7-|
A|-5-5-5---------5-5-5---------5-5-5--------------------------------------|
E|------------------------------------------------------------------------|


Chorus:
G|-----------------------------------------------------------------------|
D|---------5--5----------5--5----------5--5----------5--5----------------|
A|-5-5-5---------5-5-5---------5-5-5---------5-5-5-----------------------|
E|----------------------------------------------------------5-5-5---5--5-|

G|-----------------------------------------------------------------|
D|-----------------------------------------------------------------|
A|--------------------------------------5-5-5---3--3---------------|
E|-5-5-5---5--5---5-5-5---5--5---5-5-5----------------3-3-3---3--3-|

G|----------------------------|
D|----------------------------|
A|-5-5-5---3--3---------------|
E|---------------5-5-5---5--5-|


Outro: (Repeat To Fade/End)
G|--------------------------------------------------------|
D|---------5--5----------5--5----------5--5----------5--5-|
A|-5-5-5---------5-5-5---------5-5-5---------5-5-5--------|
E|--------------------------------------------------------|

Almost there ...

Sign in to get your own page with links to favourite songs and more. You are just one click away...

Login with Facebook Login with Google