Log in

One click and you are in

Login with Facebook Login with Google

Why sign up and log in

Guitar Tabs Explorer
Jimmy Cliff bass tabs for Reggae night

Bass tabs

Intro

G|----------------|----------------|----------------|-----------------|
D|----------------|----------------|----------------|-----------------|
A|----------------|----------------|----------------|----8--7--3--5---|
E|-4------------4-|6---------------|-4------------4-|-----------------|

G|----------------|----------------|----------------|-----------------|
D|----------------|----------------|----------------|-----------------|
A|-3/-------------|----------------|----------------|-----------------|
E|----------------|----------------|----------------|-----------------|

G|----------------|----------------|----------------|-----------------|
D|----------------|----------------|----------------|-----------------|
A|-3/-------------|----------------|----------------|----8--7--3--5---|
E|----------------|----------------|----------------|-----------------|

Chorus

G|---------------------------------|----------------------------------|
D|---------------------------------|----------------------------------|
A|-3-3-----3-----------------------|-3-3------3-----------------------|
E|-----------5-5-3-3-1-1-----1-3---|------------5-5-3-3-1-1-----1-3---|

G|---------------------------------|----------------------------------|
D|---------------------------------|----------------------------------|
A|-3-3----x3-----------------------|-3-3------3----------8--7--3--5---|
E|-----------5-5-3-3-1-1-----1-3---|------------5-5-3-3---------------|


Verse

G|----------------|----------------|----------------|-----------------|
D|----------------|----------------|----------------|-----------------|
A|-3--3--3--3-3---|----------------|-3--3--3--3-3---|-----------------|
E|--------------3-|-1--1--1--1-1-3-|--------------3-|-1--1--1--1-1-3--|

G|----------------|----------------|----------------|-----------------|
D|----------------|----------------|----------------|-----------------|
A|-3--3--3--3-3---|----------------|-3--3--3--3-3---|----8--7--3--5---|
E|--------------3-|-1--1--1--1-1-3-|--------------3-|-----------------|


Chorus

G|---------------------------------|----------------------------------|
D|---------------------------------|----------------------------------|
A|-3-3-----3-----------------------|-3-3------3-----------------------|
E|-----------5-5-3-3-1-1-----1-3---|------------5-5-3-3-1-1-----1-3---|

G|---------------------------------|----------------------------------|
D|---------------------------------|----------------------------------|
A|-3-3----x3-----------------------|-3-3------3----------8--7--3--5---|
E|-----------5-5-3-3-1-1-----1-3---|------------5-5-3-3---------------|


Bridge

G|----------------|----------------|----------------|
D|----------------|----------------|----------------|
A|----------------|----------------|----8--7--3--5--|
E|-4----4-4-5-6---|-6\----4--------|----------------|


Instrumental part

G|---------------------------------|----------------------------------|
D|---------------------------------|----------------------------------|
A|-3-3-----3-----------------------|-3-3------3-----------------------|
E|-----------5-5-3-3-1-1-----1-3---|------------5-5-3-3-1-1-----1-3---|

G|---------------------------------|----------------------------------|
D|---------------------------------|----------------------------------|
A|-3-3----x3-----------------------|-3-3------3----------8--7--3--5---|
E|-----------5-5-3-3-1-1-----1-3---|------------5-5-3-3---------------|


Verse

G|----------------|----------------|----------------|-----------------|
D|----------------|----------------|----------------|-----------------|
A|-3--3--3--3-3---|----------------|-3--3--3--3-3---|-----------------|
E|--------------3-|-1--1--1--1-1-3-|--------------3-|-1--1--1--1-1-3--|

G|----------------|----------------|----------------|-----------------|
D|----------------|----------------|----------------|-----------------|
A|-3--3--3--3-3---|----------------|-3--3--3--3-3---|----8--7--3--5---|
E|--------------3-|-1--1--1--1-1-3-|--------------3-|-----------------|


Chorus

G|---------------------------------|----------------------------------|
D|---------------------------------|----------------------------------|
A|-3-3-----3-----------------------|-3-3------3-----------------------|
E|-----------5-5-3-3-1-1-----1-3---|------------5-5-3-3-1-1-----1-3---|

G|---------------------------------|----------------------------------|
D|---------------------------------|----------------------------------|
A|-3-3----x3-----------------------|-3-3------3----------8--7--3--5---|
E|-----------5-5-3-3-1-1-----1-3---|------------5-5-3-3---------------|


Bridge

G|----------------|----------------|----------------|----------------|
D|----------------|----------------|----------------|----------------|
A|----------------|----------------|----------------|----------------|
E|-4-4------4-4-5-|-6--------------|-4-4------4-4-5-|-6----------1-3-|

G|----------------|----------------|----------------|----------------|
D|----------------|----------------|----------------|----------------|
A|----------------|----------------|----------------|----8--7--3--5--|
E|-4-4------4-4-5-|-6-6------------|-4-4--------13/-|----------------|


G|----------------|----------------|----------------|----------------|
D|----------------|----------------|----------------|----------------|
A|-3/-------------|----------------|----------------|----------------|
E|----------------|----------------|----------------|----------------|

G|----------------|----------------|----------------|----------------|
D|----------------|----------------|-----------p10--|----------------|
A|-3/-------------|----------------|-----p10h12-----|----8--7--3--5--|
E|----------------|----------------|----------------|----------------|


Chorus x4

G|---------------------------------|----------------------------------|
D|---------------------------------|----------------------------------|
A|-3-3-----3-----------------------|-3-3------3-----------------------|
E|-----------5-5-3-3-1-1-----1-3---|------------5-5-3-3-1-1-----1-3---|

G|---------------------------------|----------------------------------|
D|---------------------------------|----------------------------------|
A|-3-3----x3-----------------------|-3-3------3----------8--7--3--5---|
E|-----------5-5-3-3-1-1-----1-3---|------------5-5-3-3---------------|


************************************

| x  Dead note
| h  Hammer-on
| /  Slide up
| \  Slide down
| P  Pop

************************************

Almost there ...

Sign in to get your own page with links to favourite songs and more. You are just one click away...

Login with Facebook Login with Google