Log in

One click and you are in

Login with Facebook Login with Google

Why sign up and log in

Guitar Tabs Explorer
Jimmy Cliff bass tabs for I can see clearly now

Bass tabs

  • Tuning: Standard tuning
  • Difficulty: Beginner
-------------------------------------------------------------------
           Artist - Jimmy Cliff
          **********************
         Song - I Can See Clearly Now
        ******************************
        Album - Higher & Higher (1996)
        ********************************
           Tabbed By - Ayreon77
          **********************
-------------------------------------------------------------------

Tuning = Standard


INTRO
******
G|--------------------|
D|-4-5-7~~~~----------|
A|-------------5----5-|
E|-----------5----5---|


-------------------------
00:10

CHORUS
*******
G|---------------------|------------------------|---------------------------|
D|---5~~~--------------|----------5~~~-7~~~-----|----------5~~~-------------|
A|-5------5~~~----5~~~-|---5~~~-5---------------|---5~~~-5------5~~~---5~~~-|
E|--------------5------|-5------------------5-5-|-5------------------5------|

00:31
G|--------------------|-********************-|
D|--------------------|----------------------|
A|---3~~~--------5~~~-|-5--------5--5--------|
E|-3------3~~~-5------|---5-5--5------5-5--5-|

G|---------------*****-|--------|-*****************-|
D|--------5------------|--------|-------------------|
A|-3~~~-3--------3-----|---5~~~-|-5--------5--5-----|
E|----------3~~~---3-3-|-5------|---5-5--5------5-5-|


-------------------------
00:48

CHORUS
*******
G|-------------------*****-|------------------------|--------------------*****-|
D|-------------------------|------------------------|--------------------------|
A|---5~~~-5-5--5-----5-----|---5~~~-5-5----5~~~-5-5-|---5~~~-5-5--5------5-----|
E|-5-------------3~~---3-3-|-5-----------5----------|-5-------------3~~~---3-3-|

                01:05
G|---------*****---------------|----------------------------*********-----------|
D|-----------------------5-4---|------------------------------------------------|
A|---------7------7----------7-|-5--5-5--5-------------5~~~-5--------5~~~---5-5-|
E|-3-5~~~----5-5----5-5--------|-----------3~~~-3-3--3--------5-5--5------5-----|
a

01:12
G|---------------------------|------*****-------*****-|
D|---------------------------|------------------------|
A|-5-3~~~-3-3-2-0------------|---5--5--------5--5-----|
E|----------------2-3--0-3-3-|-5------5-5--5------5-5-|


-------------------------
01:20

BRIDGE
*******
G|-------------------------------------|
D|---3~~~----3-3~~--3------------------|
A|-3-------3----------3~~~---3-3---3-3-|
E|-------------------------3-----3-----|


G|---------------------------------------------------------|
D|---3~~~----3-3~~-----------------------------------------|
A|-3-------3-----------------------------------------------|
E|--------------------5~~~-5-5--4--4-4--3--3-3--3-4--4-4-4-|


G|------------------------------------------------------------|
D|------------------------------------------------------------|
A|-----------3-3----3-3--3-2-2--2-2-2-------------------------|
E|-3--3-3--3------3--------------------5-5--5-5-5--5-5--5-5-5-|


-------------------------
01:50

CHORUS
*******
G|----------------------------------------------|------------------------|
D|----------------------------------------------|------------------------|
A|-5~~~-5-5--5-------------5~~~-5-5----5~~~-5-5-|---5~~~-5-5--5----------|
E|-------------3~~~-3-3--3-----------5----------|-5-------------3~~~-3-3-|

02:02
G|--------------------*****-|------------------------|------------------*****-|
D|--------------------------|------------------------|------------------------|
A|--------------------5-----|---5~~~-5-5----5~~~-5-5-|-5~~~-5-5----5~~~---5-5-|
E|-3-5~~~-5-5--3-5~~~---5-5-|-5-----------5----------|-----------5------5-----|

02:14
G|---------------------------|-----******---------*****-|
D|---------------------------|--------------------------|
A|-5-3~~~---3-3-0------------|---5--5--------5~~~-5-----|
E|--------3-------4-3--0-3-3-|-3------5-5--5--------5-5-|

02:22
G|---------------------------|-----------------------|
D|---------------------------|-----------------4-5-4-|
A|---3~~~---3-3--------------|---5~~~-5-5----5-------|
E|-5------5-----5-4-3--0-3-3-|-5-----------5---------|


G|------------------------|--------------------------|
D|------------------------|--------------------------|
A|-3~~~---3-3--0----------|---5~~~--------5~~~---5-5-|
E|------3--------3--0-3-3-|-5------5-5--5------5-----|

02:38
G|---------------------------|-------------------------|
D|---------------------------|-------------------------|
A|-5-3~~~---3-3-2-0----------|---5~~~---5-5---5--5-----|
E|--------3---------3--0-3-3-|-5------5------------5-5-|

02:46
G|---------------------------|----------------------------|
D|---------------------------|----------------------------|
A|---3~~~---3-3-2-0----------|---5~~~---5-5----5-5----5-5-|
E|-3------3---------3--0-3-3-|-5------5------5------5-----|


G|----------------------------|----------------------------------|
D|----------------------------|----------------------------------|
A|---3~~~----3-3-2-0----------|---5~~~---5-5----5~~~----5-5--5-3-|
E|-3-------3---------3--0-3-3-|-5------5------5-------5----------|

Almost there ...

Sign in to get your own page with links to favourite songs and more. You are just one click away...

Login with Facebook Login with Google